                                                                        S      1
,,7HSL8600S,27HNo Iges File Name specified,23HAutoDesk Inventor R11.0,  G      1
37HAutoDesk Inventor Iges Exporter R11.0,32,38,6,99,15,7HSL8600S,1.0D0, G      2
2,2HMM,1,.08D0,15H20070910.120524,.01D0,10000.0D0,19HNo Author specifiedG      3
,25HNo Organization specified,11,0,,33HNo Application Protocol specifiedG      4
;                                                                       G      5
     128       1       0       0       0       0       0       000010000D      1
     128       0       0      40       0                               0D      2
     502      41       0       0       0       0       0       000010000D      3
     502       0       0       6       1                               0D      4
     100      47       0       0       0       0       7       000010000D      5
     100       0       0       2       0                               0D      6
     124      49       0       0       0       0       0       000000000D      7
     124       0       0       2       0                               0D      8
     504      51       0       0       0       0       0       000010001D      9
     504       0       0       4       1                               0D     10
     100      55       0       0       0       0      13       000010000D     11
     100       0       0       2       0                               0D     12
     124      57       0       0       0       0       0       000000000D     13
     124       0       0       2       0                               0D     14
     100      59       0       0       0       0      17       000010000D     15
     100       0       0       2       0                               0D     16
     124      61       0       0       0       0       0       000000000D     17
     124       0       0       2       0                               0D     18
     100      63       0       0       0       0      17       000010000D     19
     100       0       0       1       0                               0D     20
     508      64       0       0       0       0       0       000010000D     21
     508       0       0       1       1                               0D     22
     510      65       0       0       0       0       0       000010001D     23
     510       0       0       1       1                               0D     24
     116      66       0       0       0       0       0       000010000D     25
     116       0       0       1       0                               0D     26
     123      67       0       0       0       0       0       000010200D     27
     123       0       0       1       0                               0D     28
     192      68       0       0       0       0       0       000010000D     29
     192       0       0       1       1                               0D     30
     123      69       0       0       0       0       0       000010200D     31
     123       0       0       1       0                               0D     32
     110      70       0       0       0       0       0       000010000D     33
     110       0       0       1       0                               0D     34
     100      71       0       0       0       0      17       000010000D     35
     100       0       0       2       0                               0D     36
     110      73       0       0       0       0       0       000010000D     37
     110       0       0       2       0                               0D     38
     100      75       0       0       0       0      41       000010000D     39
     100       0       0       2       0                               0D     40
     124      77       0       0       0       0       0       000000000D     41
     124       0       0       2       0                               0D     42
     508      79       0       0       0       0       0       000010000D     43
     508       0       0       1       1                               0D     44
     510      80       0       0       0       0       0       000010001D     45
     510       0       0       1       1                               0D     46
     116      81       0       0       0       0       0       000010000D     47
     116       0       0       1       0                               0D     48
     123      82       0       0       0       0       0       000010200D     49
     123       0       0       1       0                               0D     50
     192      83       0       0       0       0       0       000010000D     51
     192       0       0       1       1                               0D     52
     123      84       0       0       0       0       0       000010200D     53
     123       0       0       1       0                               0D     54
     110      85       0       0       0       0       0       000010000D     55
     110       0       0       1       0                               0D     56
     100      86       0       0       0       0      59       000010000D     57
     100       0       0       1       0                               0D     58
     124      87       0       0       0       0       0       000000000D     59
     124       0       0       2       0                               0D     60
     110      89       0       0       0       0       0       000010000D     61
     110       0       0       2       0                               0D     62
     100      91       0       0       0       0      41       000010000D     63
     100       0       0       1       0                               0D     64
     508      92       0       0       0       0       0       000010000D     65
     508       0       0       1       1                               0D     66
     510      93       0       0       0       0       0       000010001D     67
     510       0       0       1       1                               0D     68
     116      94       0       0       0       0       0       000010000D     69
     116       0       0       1       0                               0D     70
     123      95       0       0       0       0       0       000010200D     71
     123       0       0       1       0                               0D     72
     192      96       0       0       0       0       0       000010000D     73
     192       0       0       1       1                               0D     74
     123      97       0       0       0       0       0       000010200D     75
     123       0       0       1       0                               0D     76
     100      98       0       0       0       0      41       000010000D     77
     100       0       0       2       0                               0D     78
     100     100       0       0       0       0      59       000010000D     79
     100       0       0       2       0                               0D     80
     508     102       0       0       0       0       0       000010000D     81
     508       0       0       1       1                               0D     82
     510     103       0       0       0       0       0       000010001D     83
     510       0       0       1       1                               0D     84
     116     104       0       0       0       0       0       000010000D     85
     116       0       0       1       0                               0D     86
     123     105       0       0       0       0       0       000010200D     87
     123       0       0       1       0                               0D     88
     190     106       0       0       0       0       0       000010000D     89
     190       0       0       1       1                               0D     90
     123     107       0       0       0       0       0       000010200D     91
     123       0       0       1       0                               0D     92
     508     108       0       0       0       0       0       000010000D     93
     508       0       0       1       1                               0D     94
     510     109       0       0       0       0       0       000010001D     95
     510       0       0       1       1                               0D     96
     116     110       0       0       0       0       0       000010000D     97
     116       0       0       1       0                               0D     98
     123     111       0       0       0       0       0       000010200D     99
     123       0       0       1       0                               0D    100
     192     112       0       0       0       0       0       000010000D    101
     192       0       0       1       1                               0D    102
     123     113       0       0       0       0       0       000010200D    103
     123       0       0       1       0                               0D    104
     100     114       0       0       0       0      41       000010000D    105
     100       0       0       1       0                               0D    106
     100     115       0       0       0       0      17       000010000D    107
     100       0       0       1       0                               0D    108
     508     116       0       0       0       0       0       000010000D    109
     508       0       0       1       1                               0D    110
     510     117       0       0       0       0       0       000010001D    111
     510       0       0       1       1                               0D    112
     116     118       0       0       0       0       0       000010000D    113
     116       0       0       1       0                               0D    114
     123     119       0       0       0       0       0       000010200D    115
     123       0       0       1       0                               0D    116
     190     120       0       0       0       0       0       000010000D    117
     190       0       0       1       1                               0D    118
     123     121       0       0       0       0       0       000010200D    119
     123       0       0       1       0                               0D    120
     508     122       0       0       0       0       0       000010000D    121
     508       0       0       1       1                               0D    122
     100     123       0       0       0       0      17       000010000D    123
     100       0       0       2       0                               0D    124
     508     125       0       0       0       0       0       000010000D    125
     508       0       0       1       1                               0D    126
     510     126       0       0       0       0       0       000010001D    127
     510       0       0       1       1                               0D    128
     128     127       0       0       0       0       0       000010000D    129
     128       0       0      40       0                               0D    130
     508     167       0       0       0       0       0       000010000D    131
     508       0       0       1       1                               0D    132
     510     168       0       0       0       0       0       000010001D    133
     510       0       0       1       1                               0D    134
     116     169       0       0       0       0       0       000010000D    135
     116       0       0       1       0                               0D    136
     123     170       0       0       0       0       0       000010200D    137
     123       0       0       1       0                               0D    138
     190     171       0       0       0       0       0       000010000D    139
     190       0       0       1       1                               0D    140
     123     172       0       0       0       0       0       000010200D    141
     123       0       0       1       0                               0D    142
     508     173       0       0       0       0       0       000010000D    143
     508       0       0       1       1                               0D    144
     508     174       0       0       0       0       0       000010000D    145
     508       0       0       1       1                               0D    146
     510     175       0       0       0       0       0       000010001D    147
     510       0       0       1       1                               0D    148
     514     176       0       0       0       0       0       000010000D    149
     514       0       0       1       1                               0D    150
     186     177       0       0       1       0       0       000000000D    151
     186       0    -153       1       0                               0D    152
     314     178       0       0       0       0       0       000000200D    153
     314       0       0       2       0                               0D    154
128,2,8,2,2,0,1,0,0,0,.211441151281137D0,.211441151281137D0,           1P      1
.211441151281137D0,.674963951986564D0,.674963951986564D0,              1P      2
.674963951986564D0,0.0D0,0.0D0,0.0D0,1.5707963267949D0,                1P      3
1.5707963267949D0,3.14159265358979D0,3.14159265358979D0,               1P      4
4.71238898038469D0,4.71238898038469D0,6.28318530717959D0,              1P      5
6.28318530717959D0,6.28318530717959D0,1.0D0,.973263325107856D0,        1P      6
1.0D0,.707106781186548D0,.688201097063933D0,.707106781186548D0,        1P      7
1.0D0,.973263325107856D0,1.0D0,.707106781186548D0,                     1P      8
.688201097063933D0,.707106781186548D0,1.0D0,.973263325107856D0,        1P      9
1.0D0,.707106781186548D0,.688201097063933D0,.707106781186548D0,        1P     10
1.0D0,.973263325107856D0,1.0D0,.707106781186548D0,                     1P     11
.688201097063933D0,.707106781186548D0,1.0D0,.973263325107856D0,        1P     12
1.0D0,1.20623725851504D-15,3.25D0,-9.85000000000001D0,                 1P     13
9.02966158856663D-16,14.7873103260435D0,-7.37352175283286D0,           1P     14
7.88860905221012D-31,24.0D0,-7.105427357601D-15,                       1P     15
9.85000000000001D0,3.25D0,-9.85000000000001D0,                         1P     16
7.37352175283286D0,14.7873103260435D0,-7.37352175283286D0,             1P     17
7.105427357601D-15,24.0D0,-7.105427357601D-15,                         1P     18
9.85000000000001D0,3.25D0,1.20623725851504D-15,                        1P     19
7.37352175283286D0,14.7873103260435D0,9.02966158856663D-16,            1P     20
7.105427357601D-15,24.0D0,7.88860905221012D-31,                        1P     21
9.85000000000001D0,3.25D0,9.85000000000001D0,7.37352175283286D0,       1P     22
14.7873103260435D0,7.37352175283286D0,7.105427357601D-15,24.0D0,       1P     23
7.105427357601D-15,-1.20623725851504D-15,3.25D0,                       1P     24
9.85000000000001D0,-9.02966158856663D-16,14.7873103260435D0,           1P     25
7.37352175283286D0,-7.88860905221012D-31,24.0D0,                       1P     26
7.105427357601D-15,-9.85000000000001D0,3.25D0,                         1P     27
9.85000000000001D0,-7.37352175283286D0,14.7873103260435D0,             1P     28
7.37352175283286D0,-7.105427357601D-15,24.0D0,                         1P     29
7.105427357601D-15,-9.85000000000001D0,3.25D0,                         1P     30
-1.20623725851504D-15,-7.37352175283286D0,14.7873103260435D0,          1P     31
-9.02966158856663D-16,-7.105427357601D-15,24.0D0,                      1P     32
-7.88860905221012D-31,-9.85000000000001D0,3.25D0,                      1P     33
-9.85000000000001D0,-7.37352175283286D0,14.7873103260435D0,            1P     34
-7.37352175283286D0,-7.105427357601D-15,24.0D0,                        1P     35
-7.105427357601D-15,1.20623725851504D-15,3.25D0,                       1P     36
-9.85000000000001D0,9.02966158856663D-16,14.7873103260435D0,           1P     37
-7.37352175283286D0,7.88860905221012D-31,24.0D0,                       1P     38
-7.105427357601D-15,.211441151281137D0,.674963951986564D0,0.0D0,       1P     39
6.28318530717959D0;                                                    1P     40
502,12,0.0D0,24.0D0,0.0D0,0.0D0,3.25D0,9.85D0,                         3P     41
-1.20623725851504D-15,3.25D0,-9.85D0,-9.85D0,3.25D0,0.0D0,             3P     42
-10.5D0,3.25D0,0.0D0,-10.5D0,0.0D0,0.0D0,10.5D0,3.25D0,                3P     43
-1.2858366715135D-15,10.5D0,0.0D0,-1.2858366715135D-15,-3.0D0,         3P     44
-18.0D0,0.0D0,-3.0D0,0.0D0,0.0D0,3.0D0,-18.0D0,                        3P     45
3.67381906146713D-16,3.0D0,0.0D0,3.67381906146713D-16;                 3P     46
100,0.0D0,0.0D0,0.0D0,39.0364738466031D0,-31.2434586693514D0,          5P     47
48.8864738466032D0,-10.4934586693514D0;                                5P     48
124,0.0D0,0.0D0,1.0D0,0.0D0,0.0D0,-1.0D0,0.0D0,                        7P     49
-7.24345866935138D0,1.0D0,0.0D0,0.0D0,-39.0364738466032D0;             7P     50
504,17,5,3,1,3,2,11,3,1,3,3,15,3,3,3,4,19,3,4,3,2,33,3,5,3,6,35,       9P     51
3,7,3,5,37,3,7,3,8,39,3,8,3,6,55,3,9,3,10,57,3,9,3,11,61,3,11,3,       9P     52
12,63,3,10,3,12,77,3,12,3,10,79,3,11,3,9,105,3,6,3,8,107,3,5,3,        9P     53
7,123,3,2,3,3;                                                         9P     54
100,0.0D0,0.0D0,0.0D0,39.0364738466031D0,-31.2434586693514D0,         11P     55
48.8864738466032D0,-10.4934586693514D0;                               11P     56
124,0.0D0,0.0D0,-1.0D0,4.78043139033713D-15,0.0D0,-1.0D0,0.0D0,       13P     57
-7.24345866935138D0,-1.0D0,0.0D0,0.0D0,39.0364738466032D0;            13P     58
100,0.0D0,0.0D0,0.0D0,-1.80935588777256D-15,-9.85D0,9.85D0,           15P     59
-2.41247451703008D-15;                                                15P     60
124,-1.0D0,0.0D0,0.0D0,0.0D0,0.0D0,0.0D0,1.0D0,3.25D0,0.0D0,          17P     61
1.0D0,0.0D0,0.0D0;                                                    17P     62
100,0.0D0,0.0D0,0.0D0,9.85D0,0.0D0,6.03118629257521D-16,9.85D0;       19P     63
508,4,0,9,1,0,0,0,9,2,1,0,0,9,3,1,0,0,9,4,1,0;                        21P     64
510,1,1,1,21;                                                         23P     65
116,0.0D0,1.625D0,0.0D0,0;                                            25P     66
123,0.0D0,1.0D0,0.0D0;                                                27P     67
192,25,27,10.5D0,31;                                                  29P     68
123,-1.0D0,0.0D0,0.0D0;                                               31P     69
110,-10.5D0,3.25D0,0.0D0,-10.5D0,0.0D0,0.0D0;                         33P     70
100,0.0D0,0.0D0,0.0D0,-10.5D0,1.2858366715135D-15,10.5D0,             35P     71
-2.57167334302699D-15;                                                35P     72
110,10.5D0,3.25D0,-1.2858366715135D-15,10.5D0,0.0D0,                  37P     73
-1.2858366715135D-15;                                                 37P     74
100,0.0D0,0.0D0,0.0D0,-10.5D0,1.2858366715135D-15,10.5D0,             39P     75
-2.57167334302699D-15;                                                39P     76
124,-1.0D0,0.0D0,0.0D0,0.0D0,0.0D0,0.0D0,1.0D0,0.0D0,0.0D0,           41P     77
1.0D0,0.0D0,0.0D0;                                                    41P     78
508,4,0,9,5,0,0,0,9,6,0,0,0,9,7,1,0,0,9,8,1,0;                        43P     79
510,29,1,1,43;                                                        45P     80
116,0.0D0,0.0D0,0.0D0,0;                                              47P     81
123,0.0D0,-1.0D0,0.0D0;                                               49P     82
192,47,49,3.0D0,53;                                                   51P     83
123,-1.0D0,0.0D0,0.0D0;                                               53P     84
110,-3.0D0,-18.0D0,0.0D0,-3.0D0,0.0D0,0.0D0;                          55P     85
100,0.0D0,0.0D0,0.0D0,3.0D0,0.0D0,-3.0D0,3.67381906146713D-16;        57P     86
124,-1.0D0,0.0D0,0.0D0,0.0D0,0.0D0,0.0D0,1.0D0,-18.0D0,0.0D0,         59P     87
1.0D0,0.0D0,0.0D0;                                                    59P     88
110,3.0D0,-18.0D0,3.67381906146713D-16,3.0D0,0.0D0,                   61P     89
3.67381906146713D-16;                                                 61P     90
100,0.0D0,0.0D0,0.0D0,3.0D0,0.0D0,-3.0D0,3.67381906146713D-16;        63P     91
508,4,0,9,9,0,0,0,9,10,1,0,0,9,11,1,0,0,9,12,0,0;                     65P     92
510,51,1,1,65;                                                        67P     93
116,0.0D0,0.0D0,0.0D0,0;                                              69P     94
123,0.0D0,-1.0D0,0.0D0;                                               71P     95
192,69,71,3.0D0,75;                                                   73P     96
123,-1.0D0,0.0D0,0.0D0;                                               75P     97
100,0.0D0,0.0D0,0.0D0,-3.0D0,3.67381906146713D-16,3.0D0,              77P     98
-7.34763812293426D-16;                                                77P     99
100,0.0D0,0.0D0,0.0D0,-3.0D0,3.67381906146713D-16,3.0D0,              79P    100
-7.34763812293426D-16;                                                79P    101
508,4,0,9,9,1,0,0,9,13,0,0,0,9,11,0,0,0,9,14,1,0;                     81P    102
510,73,1,1,81;                                                        83P    103
116,0.0D0,-18.0D0,0.0D0,0;                                            85P    104
123,0.0D0,-1.0D0,0.0D0;                                               87P    105
190,85,87,91;                                                         89P    106
123,0.0D0,0.0D0,-1.0D0;                                               91P    107
508,2,0,9,14,0,0,0,9,10,0,0;                                          93P    108
510,89,1,1,93;                                                        95P    109
116,0.0D0,1.625D0,0.0D0,0;                                            97P    110
123,0.0D0,1.0D0,0.0D0;                                                99P    111
192,97,99,10.5D0,103;                                                101P    112
123,-1.0D0,0.0D0,0.0D0;                                              103P    113
100,0.0D0,0.0D0,0.0D0,10.5D0,0.0D0,-10.5D0,1.2858366715135D-15;      105P    114
100,0.0D0,0.0D0,0.0D0,10.5D0,0.0D0,-10.5D0,1.2858366715135D-15;      107P    115
508,4,0,9,5,1,0,0,9,15,1,0,0,9,7,0,0,0,9,16,0,0;                     109P    116
510,101,1,1,109;                                                     111P    117
116,-10.175D0,3.25D0,0.0D0,0;                                        113P    118
123,0.0D0,1.0D0,0.0D0;                                               115P    119
190,113,115,119;                                                     117P    120
123,0.0D0,0.0D0,1.0D0;                                               119P    121
508,2,0,9,16,1,0,0,9,6,1,0;                                          121P    122
100,0.0D0,0.0D0,0.0D0,6.03118629257521D-16,9.85D0,                   123P    123
-1.80935588777256D-15,-9.85D0;                                       123P    124
508,3,0,9,4,0,0,0,9,3,0,0,0,9,17,0,0;                                125P    125
510,117,2,1,121,125;                                                 127P    126
128,2,8,2,2,0,1,0,0,0,.211441151281137D0,.211441151281137D0,         129P    127
.211441151281137D0,.674963951986564D0,.674963951986564D0,            129P    128
.674963951986564D0,0.0D0,0.0D0,0.0D0,1.5707963267949D0,              129P    129
1.5707963267949D0,3.14159265358979D0,3.14159265358979D0,             129P    130
4.71238898038469D0,4.71238898038469D0,6.28318530717959D0,            129P    131
6.28318530717959D0,6.28318530717959D0,1.0D0,.973263325107856D0,      129P    132
1.0D0,.707106781186548D0,.688201097063933D0,.707106781186548D0,      129P    133
1.0D0,.973263325107856D0,1.0D0,.707106781186548D0,                   129P    134
.688201097063933D0,.707106781186548D0,1.0D0,.973263325107856D0,      129P    135
1.0D0,.707106781186548D0,.688201097063933D0,.707106781186548D0,      129P    136
1.0D0,.973263325107856D0,1.0D0,.707106781186548D0,                   129P    137
.688201097063933D0,.707106781186548D0,1.0D0,.973263325107856D0,      129P    138
1.0D0,1.20623725851504D-15,3.25D0,-9.85000000000001D0,               129P    139
9.02966158856663D-16,14.7873103260435D0,-7.37352175283286D0,         129P    140
7.88860905221012D-31,24.0D0,-7.105427357601D-15,                     129P    141
9.85000000000001D0,3.25D0,-9.85000000000001D0,                       129P    142
7.37352175283286D0,14.7873103260435D0,-7.37352175283286D0,           129P    143
7.105427357601D-15,24.0D0,-7.105427357601D-15,                       129P    144
9.85000000000001D0,3.25D0,1.20623725851504D-15,                      129P    145
7.37352175283286D0,14.7873103260435D0,9.02966158856663D-16,          129P    146
7.105427357601D-15,24.0D0,7.88860905221012D-31,                      129P    147
9.85000000000001D0,3.25D0,9.85000000000001D0,7.37352175283286D0,     129P    148
14.7873103260435D0,7.37352175283286D0,7.105427357601D-15,24.0D0,     129P    149
7.105427357601D-15,-1.20623725851504D-15,3.25D0,                     129P    150
9.85000000000001D0,-9.02966158856663D-16,14.7873103260435D0,         129P    151
7.37352175283286D0,-7.88860905221012D-31,24.0D0,                     129P    152
7.105427357601D-15,-9.85000000000001D0,3.25D0,                       129P    153
9.85000000000001D0,-7.37352175283286D0,14.7873103260435D0,           129P    154
7.37352175283286D0,-7.105427357601D-15,24.0D0,                       129P    155
7.105427357601D-15,-9.85000000000001D0,3.25D0,                       129P    156
-1.20623725851504D-15,-7.37352175283286D0,14.7873103260435D0,        129P    157
-9.02966158856663D-16,-7.105427357601D-15,24.0D0,                    129P    158
-7.88860905221012D-31,-9.85000000000001D0,3.25D0,                    129P    159
-9.85000000000001D0,-7.37352175283286D0,14.7873103260435D0,          129P    160
-7.37352175283286D0,-7.105427357601D-15,24.0D0,                      129P    161
-7.105427357601D-15,1.20623725851504D-15,3.25D0,                     129P    162
-9.85000000000001D0,9.02966158856663D-16,14.7873103260435D0,         129P    163
-7.37352175283286D0,7.88860905221012D-31,24.0D0,                     129P    164
-7.105427357601D-15,.211441151281137D0,.674963951986564D0,0.0D0,     129P    165
6.28318530717959D0;                                                  129P    166
508,3,0,9,1,1,0,0,9,17,1,0,0,9,2,0,0;                                131P    167
510,129,1,1,131;                                                     133P    168
116,-5.25D0,0.0D0,0.0D0,0;                                           135P    169
123,0.0D0,-1.0D0,0.0D0;                                              137P    170
190,135,137,141;                                                     139P    171
123,0.0D0,0.0D0,-1.0D0;                                              141P    172
508,2,0,9,15,0,0,0,9,8,0,0;                                          143P    173
508,2,0,9,13,1,0,0,9,12,1,0;                                         145P    174
510,139,2,1,143,145;                                                 147P    175
514,9,23,1,45,1,67,1,83,1,95,1,111,1,127,1,133,1,147,1;              149P    176
186,149,1,0;                                                         151P    177
314,32.1568638086319D0,32.1568638086319D0,32.1568638086319D0,7HS     153P    178
chwarz;                                                              153P    179
S      1G      5D    154P    179                                        T      1
