  0
SECTION
  2
HEADER
  9
$ACADVER
  1
AC1014
  9
$ACADMAINTVER
 70
     9
  9
$DWGCODEPAGE
  3
ANSI_1252
  9
$INSBASE
 10
0.0
 20
0.0
 30
0.0
  9
$EXTMIN
 10
55.752846
 20
160.263553
 30
0.0
  9
$EXTMAX
 10
96.995487
 20
172.272604
 30
0.0
  9
$LIMMIN
 10
0.0
 20
0.0
  9
$LIMMAX
 10
210.0
 20
297.0
  9
$ORTHOMODE
 70
     0
  9
$REGENMODE
 70
     1
  9
$FILLMODE
 70
     1
  9
$QTEXTMODE
 70
     0
  9
$MIRRTEXT
 70
     1
  9
$DRAGMODE
 70
     2
  9
$LTSCALE
 40
5.0
  9
$OSMODE
 70
     0
  9
$ATTMODE
 70
     1
  9
$TEXTSIZE
 40
3.5
  9
$TRACEWID
 40
1.0
  9
$TEXTSTYLE
  7
STANDARD
  9
$CLAYER
  8
2D_PROFILE
  9
$CELTYPE
  6
BYLAYER
  9
$CECOLOR
 62
   256
  9
$CELTSCALE
 40
1.0
  9
$DELOBJ
 70
     1
  9
$DISPSILH
 70
     0
  9
$DIMSCALE
 40
1.0
  9
$DIMASZ
 40
3.0
  9
$DIMEXO
 40
1.0
  9
$DIMDLI
 40
0.0
  9
$DIMRND
 40
0.0
  9
$DIMDLE
 40
0.0
  9
$DIMEXE
 40
1.0
  9
$DIMTP
 40
0.2
  9
$DIMTM
 40
0.2
  9
$DIMTXT
 40
3.0
  9
$DIMCEN
 40
0.0
  9
$DIMTSZ
 40
0.0
  9
$DIMTOL
 70
     0
  9
$DIMLIM
 70
     0
  9
$DIMTIH
 70
     0
  9
$DIMTOH
 70
     0
  9
$DIMSE1
 70
     0
  9
$DIMSE2
 70
     0
  9
$DIMTAD
 70
     1
  9
$DIMZIN
 70
     8
  9
$DIMBLK
  1

  9
$DIMASO
 70
     1
  9
$DIMSHO
 70
     1
  9
$DIMPOST
  1

  9
$DIMAPOST
  1

  9
$DIMALT
 70
     0
  9
$DIMALTD
 70
     2
  9
$DIMALTF
 40
25.4
  9
$DIMLFAC
 40
-1.0
  9
$DIMTOFL
 70
     1
  9
$DIMTVP
 40
0.0
  9
$DIMTIX
 70
     0
  9
$DIMSOXD
 70
     0
  9
$DIMSAH
 70
     0
  9
$DIMBLK1
  1

  9
$DIMBLK2
  1

  9
$DIMSTYLE
  2
PALETTI
  9
$DIMCLRD
 70
   256
  9
$DIMCLRE
 70
   256
  9
$DIMCLRT
 70
   256
  9
$DIMTFAC
 40
0.7
  9
$DIMGAP
 40
0.7
  9
$DIMJUST
 70
     0
  9
$DIMSD1
 70
     0
  9
$DIMSD2
 70
     0
  9
$DIMTOLJ
 70
     1
  9
$DIMTZIN
 70
     8
  9
$DIMALTZ
 70
     8
  9
$DIMALTTZ
 70
     8
  9
$DIMFIT
 70
     5
  9
$DIMUPT
 70
     0
  9
$DIMUNIT
 70
     2
  9
$DIMDEC
 70
     4
  9
$DIMTDEC
 70
     4
  9
$DIMALTU
 70
     2
  9
$DIMALTTD
 70
     2
  9
$DIMTXSTY
  7
STANDARD
  9
$DIMAUNIT
 70
     0
  9
$LUNITS
 70
     2
  9
$LUPREC
 70
     4
  9
$SKETCHINC
 40
1.0
  9
$FILLETRAD
 40
0.0
  9
$AUNITS
 70
     0
  9
$AUPREC
 70
     0
  9
$MENU
  1
acad
  9
$ELEVATION
 40
0.0
  9
$PELEVATION
 40
0.0
  9
$THICKNESS
 40
0.0
  9
$LIMCHECK
 70
     0
  9
$BLIPMODE
 70
     0
  9
$CHAMFERA
 40
10.0
  9
$CHAMFERB
 40
10.0
  9
$CHAMFERC
 40
0.0
  9
$CHAMFERD
 40
0.0
  9
$SKPOLY
 70
     0
  9
$TDCREATE
 40
2451229.669369120
  9
$TDUPDATE
 40
2451229.669369120
  9
$TDINDWG
 40
0.0000000000
  9
$TDUSRTIMER
 40
0.0000000000
  9
$USRTIMER
 70
     1
  9
$ANGBASE
 50
0.0
  9
$ANGDIR
 70
     0
  9
$PDMODE
 70
     0
  9
$PDSIZE
 40
0.0
  9
$PLINEWID
 40
0.0
  9
$COORDS
 70
     1
  9
$SPLFRAME
 70
     0
  9
$SPLINETYPE
 70
     6
  9
$SPLINESEGS
 70
     8
  9
$ATTDIA
 70
     1
  9
$ATTREQ
 70
     1
  9
$HANDLING
 70
     1
  9
$HANDSEED
  5
A3
  9
$SURFTAB1
 70
     6
  9
$SURFTAB2
 70
     6
  9
$SURFTYPE
 70
     6
  9
$SURFU
 70
     6
  9
$SURFV
 70
     6
  9
$UCSNAME
  2

  9
$UCSORG
 10
0.0
 20
0.0
 30
0.0
  9
$UCSXDIR
 10
1.0
 20
0.0
 30
0.0
  9
$UCSYDIR
 10
0.0
 20
1.0
 30
0.0
  9
$PUCSNAME
  2

  9
$PUCSORG
 10
0.0
 20
0.0
 30
0.0
  9
$PUCSXDIR
 10
1.0
 20
0.0
 30
0.0
  9
$PUCSYDIR
 10
0.0
 20
1.0
 30
0.0
  9
$USERI1
 70
     0
  9
$USERI2
 70
     0
  9
$USERI3
 70
     0
  9
$USERI4
 70
     0
  9
$USERI5
 70
     0
  9
$USERR1
 40
1.0
  9
$USERR2
 40
0.0
  9
$USERR3
 40
0.0
  9
$USERR4
 40
0.0
  9
$USERR5
 40
0.0
  9
$WORLDVIEW
 70
     0
  9
$SHADEDGE
 70
     3
  9
$SHADEDIF
 70
    70
  9
$TILEMODE
 70
     1
  9
$MAXACTVP
 70
    16
  9
$PINSBASE
 10
0.0
 20
0.0
 30
0.0
  9
$PLIMCHECK
 70
     0
  9
$PEXTMIN
 10
1.000000E+20
 20
1.000000E+20
 30
1.000000E+20
  9
$PEXTMAX
 10
-1.000000E+20
 20
-1.000000E+20
 30
-1.000000E+20
  9
$PLIMMIN
 10
0.0
 20
0.0
  9
$PLIMMAX
 10
420.0
 20
297.0
  9
$UNITMODE
 70
     0
  9
$VISRETAIN
 70
     0
  9
$PLINEGEN
 70
     0
  9
$PSLTSCALE
 70
     1
  9
$TREEDEPTH
 70
  3020
  9
$PICKSTYLE
 70
     1
  9
$CMLSTYLE
  2
STANDARD
  9
$CMLJUST
 70
     0
  9
$CMLSCALE
 40
1.0
  9
$PROXYGRAPHICS
 70
     1
  9
$MEASUREMENT
 70
     0
  0
ENDSEC
  0
SECTION
  2
CLASSES
  0
CLASS
  1
DICTIONARYVAR
  2
AcDbDictionaryVar
  3
"AutoCAD"
 90
        0
280
     0
281
     0
  0
ENDSEC
  0
SECTION
  2
TABLES
  0
TABLE
  2
VPORT
  5
12
100
AcDbSymbolTable
 70
     2
  0
VPORT
  5
A2
100
AcDbSymbolTableRecord
100
AcDbViewportTableRecord
  2
*ACTIVE
 70
     0
 10
0.0
 20
0.0
 11
1.0
 21
1.0
 12
108.919251
 22
173.255964
 13
0.0
 23
0.0
 14
5.0
 24
5.0
 15
5.0
 25
5.0
 16
0.0
 26
0.0
 36
1.0
 17
0.0
 27
0.0
 37
0.0
 40
90.48572
 41
1.700368
 42
50.0
 43
0.0
 44
0.0
 50
0.0
 51
0.0
 71
     0
 72
 20000
 73
     1
 74
     3
 75
     0
 76
     0
 77
     0
 78
     1
  0
ENDTAB
  0
TABLE
  2
LTYPE
  5
D
100
AcDbSymbolTable
 70
     1
  0
LTYPE
  5
E
100
AcDbSymbolTableRecord
100
AcDbLinetypeTableRecord
  2
BYBLOCK
 70
     0
  3

 72
    65
 73
     0
 40
0.0
  0
LTYPE
  5
F
100
AcDbSymbolTableRecord
100
AcDbLinetypeTableRecord
  2
BYLAYER
 70
     0
  3

 72
    65
 73
     0
 40
0.0
  0
LTYPE
  5
5
100
AcDbSymbolTableRecord
100
AcDbLinetypeTableRecord
  2
CONTINUOUS
 70
     0
  3
Solid line
 72
    65
 73
     0
 40
0.0
  0
ENDTAB
  0
TABLE
  2
LAYER
  5
A
100
AcDbSymbolTable
 70
     2
  0
LAYER
  5
4
100
AcDbSymbolTableRecord
100
AcDbLayerTableRecord
  2
0
 70
     1
 62
     5
  6
CONTINUOUS
  0
LAYER
  5
1B
100
AcDbSymbolTableRecord
100
AcDbLayerTableRecord
  2
2D_PROFILE
 70
     0
 62
     5
  6
CONTINUOUS
  0
ENDTAB
  0
TABLE
  2
STYLE
  5
B
100
AcDbSymbolTable
 70
     1
  0
STYLE
  5
C
100
AcDbSymbolTableRecord
100
AcDbTextStyleTableRecord
  2
STANDARD
 70
     0
 40
0.0
 41
1.0
 50
0.0
 71
     0
 42
3.5
  3
ISOCP
  4

  0
ENDTAB
  0
TABLE
  2
VIEW
  5
10
100
AcDbSymbolTable
 70
     0
  0
ENDTAB
  0
TABLE
  2
UCS
  5
11
100
AcDbSymbolTable
 70
     0
  0
ENDTAB
  0
TABLE
  2
APPID
  5
14
100
AcDbSymbolTable
 70
     1
  0
APPID
  5
15
100
AcDbSymbolTableRecord
100
AcDbRegAppTableRecord
  2
ACAD
 70
     0
  0
ENDTAB
  0
TABLE
  2
DIMSTYLE
  5
16
100
AcDbSymbolTable
 70
     1
  0
DIMSTYLE
105
1D
100
AcDbSymbolTableRecord
100
AcDbDimStyleTableRecord
  2
PALETTI
 70
     0
  3

  4

  5

  6

  7

 40
1.0
 41
3.0
 42
1.0
 43
0.0
 44
1.0
 45
0.0
 46
0.0
 47
0.15
 48
0.0
140
3.0
141
0.0
142
0.0
143
25.4
144
-1.0
145
0.0
146
0.7
147
0.7
 71
     0
 72
     0
 73
     0
 74
     0
 75
     0
 76
     0
 77
     1
 78
     8
170
     0
171
     2
172
     1
173
     0
174
     0
175
     0
176
   256
177
   256
178
   256
270
     2
271
     4
272
     4
273
     2
274
     2
340
C
275
     0
280
     0
281
     0
282
     0
283
     1
284
     8
285
     8
286
     8
287
     5
288
     0
  0
ENDTAB
  0
TABLE
  2
BLOCK_RECORD
  5
1
100
AcDbSymbolTable
 70
     0
  0
BLOCK_RECORD
  5
2
100
AcDbSymbolTableRecord
100
AcDbBlockTableRecord
  2
*MODEL_SPACE
  0
BLOCK_RECORD
  5
7
100
AcDbSymbolTableRecord
100
AcDbBlockTableRecord
  2
*PAPER_SPACE
  0
ENDTAB
  0
ENDSEC
  0
SECTION
  2
BLOCKS
  0
BLOCK
  5
3
100
AcDbEntity
  8
0
100
AcDbBlockBegin
  2
*MODEL_SPACE
 70
     0
 10
0.0
 20
0.0
 30
0.0
  3
*MODEL_SPACE
  1

  0
ENDBLK
  5
6
100
AcDbEntity
  8
0
100
AcDbBlockEnd
  0
BLOCK
  5
8
100
AcDbEntity
 67
     1
  8
0
100
AcDbBlockBegin
  2
*PAPER_SPACE
 70
     0
 10
0.0
 20
0.0
 30
0.0
  3
*PAPER_SPACE
  1

  0
ENDBLK
  5
9
100
AcDbEntity
 67
     1
  8
0
100
AcDbBlockEnd
  0
ENDSEC
  0
SECTION
  2
ENTITIES
  0
ARC
  5
1E
100
AcDbEntity
  8
2D_PROFILE
100
AcDbCircle
 10
68.874167
 20
168.651284
 30
0.0
 40
0.5
100
AcDbArc
 50
180.0
 51
270.0
1001
ACAD
1000
R13OBJECT
1002
{
1005
A1
1002
}
  0
ARC
  5
1F
100
AcDbEntity
  8
2D_PROFILE
100
AcDbCircle
 10
67.374167
 20
168.651284
 30
0.0
 40
1.0
100
AcDbArc
 50
0.0
 51
90.0
1001
ACAD
1000
R13OBJECT
1002
{
1005
A1
1002
}
  0
LINE
  5
20
100
AcDbEntity
  8
2D_PROFILE
100
AcDbLine
 10
67.374167
 20
169.651284
 30
0.0
 11
66.374167
 21
169.651284
 31
0.0
1001
ACAD
1000
R13OBJECT
1002
{
1005
A1
1002
}
  0
ARC
  5
21
100
AcDbEntity
  8
2D_PROFILE
100
AcDbCircle
 10
66.374167
 20
168.651284
 30
0.0
 40
1.0
100
AcDbArc
 50
90.0
 51
180.0
1001
ACAD
1000
R13OBJECT
1002
{
1005
A1
1002
}
  0
LINE
  5
22
100
AcDbEntity
  8
2D_PROFILE
100
AcDbLine
 10
65.374167
 20
168.651284
 30
0.0
 11
65.374167
 21
167.151284
 31
0.0
1001
ACAD
1000
R13OBJECT
1002
{
1005
A1
1002
}
  0
ARC
  5
23
100
AcDbEntity
  8
2D_PROFILE
100
AcDbCircle
 10
64.874167
 20
167.151284
 30
0.0
 40
0.5
100
AcDbArc
 50
270.0
 51
0.0
1001
ACAD
1000
R13OBJECT
1002
{
1005
A1
1002
}
  0
LINE
  5
24
100
AcDbEntity
  8
2D_PROFILE
100
AcDbLine
 10
62.874167
 20
166.651284
 30
0.0
 11
64.874167
 21
166.651284
 31
0.0
1001
ACAD
1000
R13OBJECT
1002
{
1005
A1
1002
}
  0
ARC
  5
25
100
AcDbEntity
  8
2D_PROFILE
100
AcDbCircle
 10
62.874167
 20
167.151284
 30
0.0
 40
0.5
100
AcDbArc
 50
180.0
 51
270.0
1001
ACAD
1000
R13OBJECT
1002
{
1005
A1
1002
}
  0
LINE
  5
26
100
AcDbEntity
  8
2D_PROFILE
100
AcDbLine
 10
62.374167
 20
168.651284
 30
0.0
 11
62.374167
 21
167.151284
 31
0.0
1001
ACAD
1000
R13OBJECT
1002
{
1005
A1
1002
}
  0
ARC
  5
27
100
AcDbEntity
  8
2D_PROFILE
100
AcDbCircle
 10
61.374167
 20
168.651284
 30
0.0
 40
1.0
100
AcDbArc
 50
0.0
 51
90.0
1001
ACAD
1000
R13OBJECT
1002
{
1005
A1
1002
}
  0
LINE
  5
28
100
AcDbEntity
  8
2D_PROFILE
100
AcDbLine
 10
60.374167
 20
169.651284
 30
0.0
 11
61.374167
 21
169.651284
 31
0.0
1001
ACAD
1000
R13OBJECT
1002
{
1005
A1
1002
}
  0
ARC
  5
29
100
AcDbEntity
  8
2D_PROFILE
100
AcDbCircle
 10
60.374167
 20
168.651284
 30
0.0
 40
1.0
100
AcDbArc
 50
90.0
 51
180.0
1001
ACAD
1000
R13OBJECT
1002
{
1005
A1
1002
}
  0
LINE
  5
2A
100
AcDbEntity
  8
2D_PROFILE
100
AcDbLine
 10
59.374167
 20
168.651284
 30
0.0
 11
59.374167
 21
167.151284
 31
0.0
1001
ACAD
1000
R13OBJECT
1002
{
1005
A1
1002
}
  0
ARC
  5
2B
100
AcDbEntity
  8
2D_PROFILE
100
AcDbCircle
 10
58.874167
 20
167.151284
 30
0.0
 40
0.5
100
AcDbArc
 50
270.0
 51
0.0
1001
ACAD
1000
R13OBJECT
1002
{
1005
A1
1002
}
  0
LINE
  5
2C
100
AcDbEntity
  8
2D_PROFILE
100
AcDbLine
 10
58.874167
 20
166.651284
 30
0.0
 11
58.374167
 21
166.651284
 31
0.0
1001
ACAD
1000
R13OBJECT
1002
{
1005
A1
1002
}
  0
ARC
  5
2D
100
AcDbEntity
  8
2D_PROFILE
100
AcDbCircle
 10
58.374167
 20
168.651284
 30
0.0
 40
2.0
100
AcDbArc
 50
180.0
 51
270.0
1001
ACAD
1000
R13OBJECT
1002
{
1005
A1
1002
}
  0
ARC
  5
2E
100
AcDbEntity
  8
2D_PROFILE
100
AcDbCircle
 10
59.374167
 20
168.651284
 30
0.0
 40
3.0
100
AcDbArc
 50
90.0
 51
180.0
1001
ACAD
1000
R13OBJECT
1002
{
1005
A1
1002
}
  0
LINE
  5
2F
100
AcDbEntity
  8
2D_PROFILE
100
AcDbLine
 10
76.074167
 20
171.651284
 30
0.0
 11
59.374167
 21
171.651284
 31
0.0
1001
ACAD
1000
R13OBJECT
1002
{
1005
A1
1002
}
  0
LINE
  5
30
100
AcDbEntity
  8
2D_PROFILE
100
AcDbLine
 10
76.374167
 20
171.351284
 30
0.0
 11
76.074167
 21
171.651284
 31
0.0
1001
ACAD
1000
R13OBJECT
1002
{
1005
A1
1002
}
  0
LINE
  5
31
100
AcDbEntity
  8
2D_PROFILE
100
AcDbLine
 10
76.674167
 20
171.651284
 30
0.0
 11
76.374167
 21
171.351284
 31
0.0
1001
ACAD
1000
R13OBJECT
1002
{
1005
A1
1002
}
  0
LINE
  5
32
100
AcDbEntity
  8
2D_PROFILE
100
AcDbLine
 10
93.374167
 20
171.651284
 30
0.0
 11
76.674167
 21
171.651284
 31
0.0
1001
ACAD
1000
R13OBJECT
1002
{
1005
A1
1002
}
  0
ARC
  5
33
100
AcDbEntity
  8
2D_PROFILE
100
AcDbCircle
 10
93.374167
 20
168.651284
 30
0.0
 40
3.0
100
AcDbArc
 50
360.0
 51
90.0
1001
ACAD
1000
R13OBJECT
1002
{
1005
A1
1002
}
  0
LINE
  5
34
100
AcDbEntity
  8
2D_PROFILE
100
AcDbLine
 10
96.374167
 20
168.151284
 30
0.0
 11
96.374167
 21
168.651284
 31
0.0
1001
ACAD
1000
R13OBJECT
1002
{
1005
A1
1002
}
  0
LINE
  5
35
100
AcDbEntity
  8
2D_PROFILE
100
AcDbLine
 10
96.374167
 20
168.151284
 30
0.0
 11
93.874167
 21
168.151284
 31
0.0
1001
ACAD
1000
R13OBJECT
1002
{
1005
A1
1002
}
  0
ARC
  5
36
100
AcDbEntity
  8
2D_PROFILE
100
AcDbCircle
 10
93.874167
 20
168.651284
 30
0.0
 40
0.5
100
AcDbArc
 50
180.0
 51
270.0
1001
ACAD
1000
R13OBJECT
1002
{
1005
A1
1002
}
  0
ARC
  5
37
100
AcDbEntity
  8
2D_PROFILE
100
AcDbCircle
 10
92.374167
 20
168.651284
 30
0.0
 40
1.0
100
AcDbArc
 50
360.0
 51
90.0
1001
ACAD
1000
R13OBJECT
1002
{
1005
A1
1002
}
  0
LINE
  5
38
100
AcDbEntity
  8
2D_PROFILE
100
AcDbLine
 10
92.374167
 20
169.651284
 30
0.0
 11
91.374167
 21
169.651284
 31
0.0
1001
ACAD
1000
R13OBJECT
1002
{
1005
A1
1002
}
  0
ARC
  5
39
100
AcDbEntity
  8
2D_PROFILE
100
AcDbCircle
 10
91.374167
 20
168.651284
 30
0.0
 40
1.0
100
AcDbArc
 50
90.0
 51
180.0
1001
ACAD
1000
R13OBJECT
1002
{
1005
A1
1002
}
  0
ARC
  5
3A
100
AcDbEntity
  8
2D_PROFILE
100
AcDbCircle
 10
89.874167
 20
168.651284
 30
0.0
 40
0.5
100
AcDbArc
 50
270.0
 51
0.0
1001
ACAD
1000
R13OBJECT
1002
{
1005
A1
1002
}
  0
LINE
  5
3B
100
AcDbEntity
  8
2D_PROFILE
100
AcDbLine
 10
89.874167
 20
168.151284
 30
0.0
 11
87.874167
 21
168.151284
 31
0.0
1001
ACAD
1000
R13OBJECT
1002
{
1005
A1
1002
}
  0
ARC
  5
3C
100
AcDbEntity
  8
2D_PROFILE
100
AcDbCircle
 10
87.874167
 20
168.651284
 30
0.0
 40
0.5
100
AcDbArc
 50
180.0
 51
270.0
1001
ACAD
1000
R13OBJECT
1002
{
1005
A1
1002
}
  0
ARC
  5
3D
100
AcDbEntity
  8
2D_PROFILE
100
AcDbCircle
 10
86.374167
 20
168.651284
 30
0.0
 40
1.0
100
AcDbArc
 50
360.0
 51
90.0
1001
ACAD
1000
R13OBJECT
1002
{
1005
A1
1002
}
  0
LINE
  5
3E
100
AcDbEntity
  8
2D_PROFILE
100
AcDbLine
 10
85.374167
 20
169.651284
 30
0.0
 11
86.374167
 21
169.651284
 31
0.0
1001
ACAD
1000
R13OBJECT
1002
{
1005
A1
1002
}
  0
ARC
  5
3F
100
AcDbEntity
  8
2D_PROFILE
100
AcDbCircle
 10
85.374167
 20
168.651284
 30
0.0
 40
1.0
100
AcDbArc
 50
90.0
 51
180.0
1001
ACAD
1000
R13OBJECT
1002
{
1005
A1
1002
}
  0
ARC
  5
40
100
AcDbEntity
  8
2D_PROFILE
100
AcDbCircle
 10
83.874167
 20
168.651284
 30
0.0
 40
0.5
100
AcDbArc
 50
270.0
 51
360.0
1001
ACAD
1000
R13OBJECT
1002
{
1005
A1
1002
}
  0
LINE
  5
41
100
AcDbEntity
  8
2D_PROFILE
100
AcDbLine
 10
83.874167
 20
168.151284
 30
0.0
 11
81.874167
 21
168.151284
 31
0.0
1001
ACAD
1000
R13OBJECT
1002
{
1005
A1
1002
}
  0
ARC
  5
42
100
AcDbEntity
  8
2D_PROFILE
100
AcDbCircle
 10
81.874167
 20
168.651284
 30
0.0
 40
0.5
100
AcDbArc
 50
180.0
 51
270.0
1001
ACAD
1000
R13OBJECT
1002
{
1005
A1
1002
}
  0
ARC
  5
43
100
AcDbEntity
  8
2D_PROFILE
100
AcDbCircle
 10
80.374167
 20
168.651284
 30
0.0
 40
1.0
100
AcDbArc
 50
0.0
 51
90.0
1001
ACAD
1000
R13OBJECT
1002
{
1005
A1
1002
}
  0
LINE
  5
44
100
AcDbEntity
  8
2D_PROFILE
100
AcDbLine
 10
80.374167
 20
169.651284
 30
0.0
 11
79.324167
 21
169.651284
 31
0.0
1001
ACAD
1000
R13OBJECT
1002
{
1005
A1
1002
}
  0
ARC
  5
45
100
AcDbEntity
  8
2D_PROFILE
100
AcDbCircle
 10
79.324167
 20
168.651284
 30
0.0
 40
1.0
100
AcDbArc
 50
90.0
 51
180.0
1001
ACAD
1000
R13OBJECT
1002
{
1005
A1
1002
}
  0
LINE
  5
46
100
AcDbEntity
  8
2D_PROFILE
100
AcDbLine
 10
78.324167
 20
162.062209
 30
0.0
 11
78.324167
 21
168.651284
 31
0.0
1001
ACAD
1000
R13OBJECT
1002
{
1005
A1
1002
}
  0
ARC
  5
47
100
AcDbEntity
  8
2D_PROFILE
100
AcDbCircle
 10
78.874167
 20
162.062209
 30
0.0
 40
0.55
100
AcDbArc
 50
180.0
 51
354.648846
1001
ACAD
1000
R13OBJECT
1002
{
1005
A1
1002
}
  0
LINE
  5
48
100
AcDbEntity
  8
2D_PROFILE
100
AcDbLine
 10
79.576564
 20
163.863502
 30
0.0
 11
79.42177
 21
162.010916
 31
0.0
1001
ACAD
1000
R13OBJECT
1002
{
1005
A1
1002
}
  0
ARC
  5
49
100
AcDbEntity
  8
2D_PROFILE
100
AcDbCircle
 10
80.124167
 20
163.812209
 30
0.0
 40
0.55
100
AcDbArc
 50
356.392665
 51
174.648846
1001
ACAD
1000
R13OBJECT
1002
{
1005
A1
1002
}
  0
LINE
  5
4A
100
AcDbEntity
  8
2D_PROFILE
100
AcDbLine
 10
80.570798
 20
161.955248
 30
0.0
 11
80.673077
 21
163.777604
 31
0.0
1001
ACAD
1000
R13OBJECT
1002
{
1005
A1
1002
}
  0
ARC
  5
4B
100
AcDbEntity
  8
2D_PROFILE
100
AcDbCircle
 10
78.874167
 20
162.062209
 30
0.0
 40
1.7
100
AcDbArc
 50
190.395424
 51
356.392665
1001
ACAD
1000
R13OBJECT
1002
{
1005
A1
1002
}
  0
ARC
  5
4C
100
AcDbEntity
  8
2D_PROFILE
100
AcDbCircle
 10
77.103712
 20
161.737416
 30
0.0
 40
0.1
100
AcDbArc
 50
10.395424
 51
60.0
1001
ACAD
1000
R13OBJECT
1002
{
1005
A1
1002
}
  0
LINE
  5
4D
100
AcDbEntity
  8
2D_PROFILE
100
AcDbLine
 10
77.10766
 20
161.850606
 30
0.0
 11
77.153712
 21
161.824018
 31
0.0
1001
ACAD
1000
R13OBJECT
1002
{
1005
A1
1002
}
  0
ARC
  5
4E
100
AcDbEntity
  8
2D_PROFILE
100
AcDbCircle
 10
77.15766
 20
161.937209
 30
0.0
 40
0.1
100
AcDbArc
 50
120.0
 51
240.0
1001
ACAD
1000
R13OBJECT
1002
{
1005
A1
1002
}
  0
LINE
  5
4F
100
AcDbEntity
  8
2D_PROFILE
100
AcDbLine
 10
77.240673
 20
162.100606
 30
0.0
 11
77.10766
 21
162.023811
 31
0.0
1001
ACAD
1000
R13OBJECT
1002
{
1005
A1
1002
}
  0
ARC
  5
50
100
AcDbEntity
  8
2D_PROFILE
100
AcDbCircle
 10
77.190673
 20
162.187209
 30
0.0
 40
0.1
100
AcDbArc
 50
300.000001
 51
60.0
1001
ACAD
1000
R13OBJECT
1002
{
1005
A1
1002
}
  0
LINE
  5
51
100
AcDbEntity
  8
2D_PROFILE
100
AcDbLine
 10
77.10766
 20
162.350606
 30
0.0
 11
77.240673
 21
162.273811
 31
0.0
1001
ACAD
1000
R13OBJECT
1002
{
1005
A1
1002
}
  0
ARC
  5
52
100
AcDbEntity
  8
2D_PROFILE
100
AcDbCircle
 10
77.15766
 20
162.437209
 30
0.0
 40
0.1
100
AcDbArc
 50
120.000001
 51
240.0
1001
ACAD
1000
R13OBJECT
1002
{
1005
A1
1002
}
  0
LINE
  5
53
100
AcDbEntity
  8
2D_PROFILE
100
AcDbLine
 10
77.240673
 20
162.600606
 30
0.0
 11
77.10766
 21
162.523811
 31
0.0
1001
ACAD
1000
R13OBJECT
1002
{
1005
A1
1002
}
  0
ARC
  5
54
100
AcDbEntity
  8
2D_PROFILE
100
AcDbCircle
 10
77.190673
 20
162.687209
 30
0.0
 40
0.1
100
AcDbArc
 50
300.000001
 51
60.0
1001
ACAD
1000
R13OBJECT
1002
{
1005
A1
1002
}
  0
LINE
  5
55
100
AcDbEntity
  8
2D_PROFILE
100
AcDbLine
 10
77.10766
 20
162.850606
 30
0.0
 11
77.240673
 21
162.773811
 31
0.0
1001
ACAD
1000
R13OBJECT
1002
{
1005
A1
1002
}
  0
ARC
  5
56
100
AcDbEntity
  8
2D_PROFILE
100
AcDbCircle
 10
77.15766
 20
162.937209
 30
0.0
 40
0.1
100
AcDbArc
 50
120.0
 51
240.0
1001
ACAD
1000
R13OBJECT
1002
{
1005
A1
1002
}
  0
LINE
  5
57
100
AcDbEntity
  8
2D_PROFILE
100
AcDbLine
 10
77.240673
 20
163.100606
 30
0.0
 11
77.10766
 21
163.023811
 31
0.0
1001
ACAD
1000
R13OBJECT
1002
{
1005
A1
1002
}
  0
ARC
  5
58
100
AcDbEntity
  8
2D_PROFILE
100
AcDbCircle
 10
77.190673
 20
163.187209
 30
0.0
 40
0.1
100
AcDbArc
 50
300.0
 51
60.0
1001
ACAD
1000
R13OBJECT
1002
{
1005
A1
1002
}
  0
LINE
  5
59
100
AcDbEntity
  8
2D_PROFILE
100
AcDbLine
 10
77.10766
 20
163.350606
 30
0.0
 11
77.240673
 21
163.273811
 31
0.0
1001
ACAD
1000
R13OBJECT
1002
{
1005
A1
1002
}
  0
ARC
  5
5A
100
AcDbEntity
  8
2D_PROFILE
100
AcDbCircle
 10
77.15766
 20
163.437209
 30
0.0
 40
0.1
100
AcDbArc
 50
120.000001
 51
240.0
1001
ACAD
1000
R13OBJECT
1002
{
1005
A1
1002
}
  0
LINE
  5
5B
100
AcDbEntity
  8
2D_PROFILE
100
AcDbLine
 10
77.240673
 20
163.600606
 30
0.0
 11
77.10766
 21
163.523811
 31
0.0
1001
ACAD
1000
R13OBJECT
1002
{
1005
A1
1002
}
  0
ARC
  5
5C
100
AcDbEntity
  8
2D_PROFILE
100
AcDbCircle
 10
77.190673
 20
163.687209
 30
0.0
 40
0.1
100
AcDbArc
 50
300.000001
 51
60.0
1001
ACAD
1000
R13OBJECT
1002
{
1005
A1
1002
}
  0
LINE
  5
5D
100
AcDbEntity
  8
2D_PROFILE
100
AcDbLine
 10
77.10766
 20
163.850606
 30
0.0
 11
77.240673
 21
163.773811
 31
0.0
1001
ACAD
1000
R13OBJECT
1002
{
1005
A1
1002
}
  0
ARC
  5
5E
100
AcDbEntity
  8
2D_PROFILE
100
AcDbCircle
 10
77.15766
 20
163.937209
 30
0.0
 40
0.1
100
AcDbArc
 50
120.0
 51
240.0
1001
ACAD
1000
R13OBJECT
1002
{
1005
A1
1002
}
  0
LINE
  5
5F
100
AcDbEntity
  8
2D_PROFILE
100
AcDbLine
 10
77.240673
 20
164.100606
 30
0.0
 11
77.10766
 21
164.023811
 31
0.0
1001
ACAD
1000
R13OBJECT
1002
{
1005
A1
1002
}
  0
ARC
  5
60
100
AcDbEntity
  8
2D_PROFILE
100
AcDbCircle
 10
77.190673
 20
164.187209
 30
0.0
 40
0.1
100
AcDbArc
 50
300.0
 51
60.0
1001
ACAD
1000
R13OBJECT
1002
{
1005
A1
1002
}
  0
LINE
  5
61
100
AcDbEntity
  8
2D_PROFILE
100
AcDbLine
 10
77.10766
 20
164.350606
 30
0.0
 11
77.240673
 21
164.273811
 31
0.0
1001
ACAD
1000
R13OBJECT
1002
{
1005
A1
1002
}
  0
ARC
  5
62
100
AcDbEntity
  8
2D_PROFILE
100
AcDbCircle
 10
77.15766
 20
164.437209
 30
0.0
 40
0.1
100
AcDbArc
 50
120.000001
 51
240.0
1001
ACAD
1000
R13OBJECT
1002
{
1005
A1
1002
}
  0
LINE
  5
63
100
AcDbEntity
  8
2D_PROFILE
100
AcDbLine
 10
77.240673
 20
164.600606
 30
0.0
 11
77.10766
 21
164.523811
 31
0.0
1001
ACAD
1000
R13OBJECT
1002
{
1005
A1
1002
}
  0
ARC
  5
64
100
AcDbEntity
  8
2D_PROFILE
100
AcDbCircle
 10
77.190673
 20
164.687209
 30
0.0
 40
0.1
100
AcDbArc
 50
300.000001
 51
60.0
1001
ACAD
1000
R13OBJECT
1002
{
1005
A1
1002
}
  0
LINE
  5
65
100
AcDbEntity
  8
2D_PROFILE
100
AcDbLine
 10
77.10766
 20
164.850606
 30
0.0
 11
77.240673
 21
164.773811
 31
0.0
1001
ACAD
1000
R13OBJECT
1002
{
1005
A1
1002
}
  0
ARC
  5
66
100
AcDbEntity
  8
2D_PROFILE
100
AcDbCircle
 10
77.15766
 20
164.937209
 30
0.0
 40
0.1
100
AcDbArc
 50
120.0
 51
240.0
1001
ACAD
1000
R13OBJECT
1002
{
1005
A1
1002
}
  0
LINE
  5
67
100
AcDbEntity
  8
2D_PROFILE
100
AcDbLine
 10
77.240673
 20
165.100606
 30
0.0
 11
77.10766
 21
165.023811
 31
0.0
1001
ACAD
1000
R13OBJECT
1002
{
1005
A1
1002
}
  0
ARC
  5
68
100
AcDbEntity
  8
2D_PROFILE
100
AcDbCircle
 10
77.190673
 20
165.187209
 30
0.0
 40
0.1
100
AcDbArc
 50
300.0
 51
60.0
1001
ACAD
1000
R13OBJECT
1002
{
1005
A1
1002
}
  0
LINE
  5
69
100
AcDbEntity
  8
2D_PROFILE
100
AcDbLine
 10
77.10766
 20
165.350606
 30
0.0
 11
77.240673
 21
165.273811
 31
0.0
1001
ACAD
1000
R13OBJECT
1002
{
1005
A1
1002
}
  0
ARC
  5
6A
100
AcDbEntity
  8
2D_PROFILE
100
AcDbCircle
 10
77.15766
 20
165.437209
 30
0.0
 40
0.1
100
AcDbArc
 50
120.000001
 51
240.0
1001
ACAD
1000
R13OBJECT
1002
{
1005
A1
1002
}
  0
LINE
  5
6B
100
AcDbEntity
  8
2D_PROFILE
100
AcDbLine
 10
77.240673
 20
165.600606
 30
0.0
 11
77.10766
 21
165.523811
 31
0.0
1001
ACAD
1000
R13OBJECT
1002
{
1005
A1
1002
}
  0
ARC
  5
6C
100
AcDbEntity
  8
2D_PROFILE
100
AcDbCircle
 10
77.190673
 20
165.687209
 30
0.0
 40
0.1
100
AcDbArc
 50
300.000001
 51
60.0
1001
ACAD
1000
R13OBJECT
1002
{
1005
A1
1002
}
  0
LINE
  5
6D
100
AcDbEntity
  8
2D_PROFILE
100
AcDbLine
 10
77.10766
 20
165.850606
 30
0.0
 11
77.240673
 21
165.773811
 31
0.0
1001
ACAD
1000
R13OBJECT
1002
{
1005
A1
1002
}
  0
ARC
  5
6E
100
AcDbEntity
  8
2D_PROFILE
100
AcDbCircle
 10
77.15766
 20
165.937209
 30
0.0
 40
0.1
100
AcDbArc
 50
120.0
 51
240.0
1001
ACAD
1000
R13OBJECT
1002
{
1005
A1
1002
}
  0
LINE
  5
6F
100
AcDbEntity
  8
2D_PROFILE
100
AcDbLine
 10
77.128166
 20
166.03565
 30
0.0
 11
77.10766
 21
166.023811
 31
0.0
1001
ACAD
1000
R13OBJECT
1002
{
1005
A1
1002
}
  0
ARC
  5
70
100
AcDbEntity
  8
2D_PROFILE
100
AcDbCircle
 10
77.083166
 20
166.113592
 30
0.0
 40
0.09
100
AcDbArc
 50
300.0
 51
356.956948
1001
ACAD
1000
R13OBJECT
1002
{
1005
A1
1002
}
  0
ARC
  5
71
100
AcDbEntity
  8
2D_PROFILE
100
AcDbCircle
 10
76.374167
 20
166.151284
 30
0.0
 40
0.8
100
AcDbArc
 50
356.956948
 51
180.0
1001
ACAD
1000
R13OBJECT
1002
{
1005
A1
1002
}
  0
LINE
  5
72
100
AcDbEntity
  8
2D_PROFILE
100
AcDbLine
 10
75.574167
 20
166.151284
 30
0.0
 11
75.574167
 21
166.119944
 31
0.0
1001
ACAD
1000
R13OBJECT
1002
{
1005
A1
1002
}
  0
ARC
  5
73
100
AcDbEntity
  8
2D_PROFILE
100
AcDbCircle
 10
75.474167
 20
166.119944
 30
0.0
 40
0.1
100
AcDbArc
 50
300.0
 51
360.0
1001
ACAD
1000
R13OBJECT
1002
{
1005
A1
1002
}
  0
LINE
  5
74
100
AcDbEntity
  8
2D_PROFILE
100
AcDbLine
 10
75.524167
 20
166.033341
 30
0.0
 11
75.50766
 21
166.023811
 31
0.0
1001
ACAD
1000
R13OBJECT
1002
{
1005
A1
1002
}
  0
ARC
  5
75
100
AcDbEntity
  8
2D_PROFILE
100
AcDbCircle
 10
75.55766
 20
165.937209
 30
0.0
 40
0.1
100
AcDbArc
 50
120.0
 51
240.0
1001
ACAD
1000
R13OBJECT
1002
{
1005
A1
1002
}
  0
LINE
  5
76
100
AcDbEntity
  8
2D_PROFILE
100
AcDbLine
 10
75.50766
 20
165.850606
 30
0.0
 11
75.640673
 21
165.773811
 31
0.0
1001
ACAD
1000
R13OBJECT
1002
{
1005
A1
1002
}
  0
ARC
  5
77
100
AcDbEntity
  8
2D_PROFILE
100
AcDbCircle
 10
75.590673
 20
165.687209
 30
0.0
 40
0.1
100
AcDbArc
 50
300.0
 51
60.0
1001
ACAD
1000
R13OBJECT
1002
{
1005
A1
1002
}
  0
LINE
  5
78
100
AcDbEntity
  8
2D_PROFILE
100
AcDbLine
 10
75.640673
 20
165.600606
 30
0.0
 11
75.50766
 21
165.523811
 31
0.0
1001
ACAD
1000
R13OBJECT
1002
{
1005
A1
1002
}
  0
ARC
  5
79
100
AcDbEntity
  8
2D_PROFILE
100
AcDbCircle
 10
75.55766
 20
165.437209
 30
0.0
 40
0.1
100
AcDbArc
 50
120.0
 51
239.999999
1001
ACAD
1000
R13OBJECT
1002
{
1005
A1
1002
}
  0
LINE
  5
7A
100
AcDbEntity
  8
2D_PROFILE
100
AcDbLine
 10
75.50766
 20
165.350606
 30
0.0
 11
75.640673
 21
165.273811
 31
0.0
1001
ACAD
1000
R13OBJECT
1002
{
1005
A1
1002
}
  0
ARC
  5
7B
100
AcDbEntity
  8
2D_PROFILE
100
AcDbCircle
 10
75.590673
 20
165.187209
 30
0.0
 40
0.1
100
AcDbArc
 50
300.0
 51
59.999999
1001
ACAD
1000
R13OBJECT
1002
{
1005
A1
1002
}
  0
LINE
  5
7C
100
AcDbEntity
  8
2D_PROFILE
100
AcDbLine
 10
75.640673
 20
165.100606
 30
0.0
 11
75.50766
 21
165.023811
 31
0.0
1001
ACAD
1000
R13OBJECT
1002
{
1005
A1
1002
}
  0
ARC
  5
7D
100
AcDbEntity
  8
2D_PROFILE
100
AcDbCircle
 10
75.55766
 20
164.937209
 30
0.0
 40
0.1
100
AcDbArc
 50
120.0
 51
240.0
1001
ACAD
1000
R13OBJECT
1002
{
1005
A1
1002
}
  0
LINE
  5
7E
100
AcDbEntity
  8
2D_PROFILE
100
AcDbLine
 10
75.50766
 20
164.850606
 30
0.0
 11
75.640673
 21
164.773811
 31
0.0
1001
ACAD
1000
R13OBJECT
1002
{
1005
A1
1002
}
  0
ARC
  5
7F
100
AcDbEntity
  8
2D_PROFILE
100
AcDbCircle
 10
75.590673
 20
164.687209
 30
0.0
 40
0.1
100
AcDbArc
 50
300.0
 51
60.0
1001
ACAD
1000
R13OBJECT
1002
{
1005
A1
1002
}
  0
LINE
  5
80
100
AcDbEntity
  8
2D_PROFILE
100
AcDbLine
 10
75.640673
 20
164.600606
 30
0.0
 11
75.50766
 21
164.523811
 31
0.0
1001
ACAD
1000
R13OBJECT
1002
{
1005
A1
1002
}
  0
ARC
  5
81
100
AcDbEntity
  8
2D_PROFILE
100
AcDbCircle
 10
75.55766
 20
164.437209
 30
0.0
 40
0.1
100
AcDbArc
 50
120.0
 51
239.999999
1001
ACAD
1000
R13OBJECT
1002
{
1005
A1
1002
}
  0
LINE
  5
82
100
AcDbEntity
  8
2D_PROFILE
100
AcDbLine
 10
75.50766
 20
164.350606
 30
0.0
 11
75.640673
 21
164.273811
 31
0.0
1001
ACAD
1000
R13OBJECT
1002
{
1005
A1
1002
}
  0
ARC
  5
83
100
AcDbEntity
  8
2D_PROFILE
100
AcDbCircle
 10
75.590673
 20
164.187209
 30
0.0
 40
0.1
100
AcDbArc
 50
300.0
 51
59.999999
1001
ACAD
1000
R13OBJECT
1002
{
1005
A1
1002
}
  0
LINE
  5
84
100
AcDbEntity
  8
2D_PROFILE
100
AcDbLine
 10
75.640673
 20
164.100606
 30
0.0
 11
75.50766
 21
164.023811
 31
0.0
1001
ACAD
1000
R13OBJECT
1002
{
1005
A1
1002
}
  0
ARC
  5
85
100
AcDbEntity
  8
2D_PROFILE
100
AcDbCircle
 10
75.55766
 20
163.937209
 30
0.0
 40
0.1
100
AcDbArc
 50
120.0
 51
240.0
1001
ACAD
1000
R13OBJECT
1002
{
1005
A1
1002
}
  0
LINE
  5
86
100
AcDbEntity
  8
2D_PROFILE
100
AcDbLine
 10
75.50766
 20
163.850606
 30
0.0
 11
75.640673
 21
163.773811
 31
0.0
1001
ACAD
1000
R13OBJECT
1002
{
1005
A1
1002
}
  0
ARC
  5
87
100
AcDbEntity
  8
2D_PROFILE
100
AcDbCircle
 10
75.590673
 20
163.687209
 30
0.0
 40
0.1
100
AcDbArc
 50
300.0
 51
60.0
1001
ACAD
1000
R13OBJECT
1002
{
1005
A1
1002
}
  0
LINE
  5
88
100
AcDbEntity
  8
2D_PROFILE
100
AcDbLine
 10
75.640673
 20
163.600606
 30
0.0
 11
75.50766
 21
163.523811
 31
0.0
1001
ACAD
1000
R13OBJECT
1002
{
1005
A1
1002
}
  0
ARC
  5
89
100
AcDbEntity
  8
2D_PROFILE
100
AcDbCircle
 10
75.55766
 20
163.437209
 30
0.0
 40
0.1
100
AcDbArc
 50
120.0
 51
239.999999
1001
ACAD
1000
R13OBJECT
1002
{
1005
A1
1002
}
  0
LINE
  5
8A
100
AcDbEntity
  8
2D_PROFILE
100
AcDbLine
 10
75.50766
 20
163.350606
 30
0.0
 11
75.640673
 21
163.273811
 31
0.0
1001
ACAD
1000
R13OBJECT
1002
{
1005
A1
1002
}
  0
ARC
  5
8B
100
AcDbEntity
  8
2D_PROFILE
100
AcDbCircle
 10
75.590673
 20
163.187209
 30
0.0
 40
0.1
100
AcDbArc
 50
300.0
 51
59.999999
1001
ACAD
1000
R13OBJECT
1002
{
1005
A1
1002
}
  0
LINE
  5
8C
100
AcDbEntity
  8
2D_PROFILE
100
AcDbLine
 10
75.640673
 20
163.100606
 30
0.0
 11
75.50766
 21
163.023811
 31
0.0
1001
ACAD
1000
R13OBJECT
1002
{
1005
A1
1002
}
  0
ARC
  5
8D
100
AcDbEntity
  8
2D_PROFILE
100
AcDbCircle
 10
75.55766
 20
162.937209
 30
0.0
 40
0.1
100
AcDbArc
 50
120.0
 51
240.0
1001
ACAD
1000
R13OBJECT
1002
{
1005
A1
1002
}
  0
LINE
  5
8E
100
AcDbEntity
  8
2D_PROFILE
100
AcDbLine
 10
75.50766
 20
162.850606
 30
0.0
 11
75.640673
 21
162.773811
 31
0.0
1001
ACAD
1000
R13OBJECT
1002
{
1005
A1
1002
}
  0
ARC
  5
8F
100
AcDbEntity
  8
2D_PROFILE
100
AcDbCircle
 10
75.590673
 20
162.687209
 30
0.0
 40
0.1
100
AcDbArc
 50
300.0
 51
60.0
1001
ACAD
1000
R13OBJECT
1002
{
1005
A1
1002
}
  0
LINE
  5
90
100
AcDbEntity
  8
2D_PROFILE
100
AcDbLine
 10
75.640673
 20
162.600606
 30
0.0
 11
75.50766
 21
162.523811
 31
0.0
1001
ACAD
1000
R13OBJECT
1002
{
1005
A1
1002
}
  0
ARC
  5
91
100
AcDbEntity
  8
2D_PROFILE
100
AcDbCircle
 10
75.55766
 20
162.437209
 30
0.0
 40
0.1
100
AcDbArc
 50
120.0
 51
239.999999
1001
ACAD
1000
R13OBJECT
1002
{
1005
A1
1002
}
  0
LINE
  5
92
100
AcDbEntity
  8
2D_PROFILE
100
AcDbLine
 10
75.50766
 20
162.350606
 30
0.0
 11
75.640673
 21
162.273811
 31
0.0
1001
ACAD
1000
R13OBJECT
1002
{
1005
A1
1002
}
  0
ARC
  5
93
100
AcDbEntity
  8
2D_PROFILE
100
AcDbCircle
 10
75.590673
 20
162.187209
 30
0.0
 40
0.1
100
AcDbArc
 50
300.0
 51
59.999999
1001
ACAD
1000
R13OBJECT
1002
{
1005
A1
1002
}
  0
LINE
  5
94
100
AcDbEntity
  8
2D_PROFILE
100
AcDbLine
 10
75.640673
 20
162.100606
 30
0.0
 11
75.50766
 21
162.023811
 31
0.0
1001
ACAD
1000
R13OBJECT
1002
{
1005
A1
1002
}
  0
ARC
  5
95
100
AcDbEntity
  8
2D_PROFILE
100
AcDbCircle
 10
75.55766
 20
161.937209
 30
0.0
 40
0.1
100
AcDbArc
 50
120.0
 51
239.999999
1001
ACAD
1000
R13OBJECT
1002
{
1005
A1
1002
}
  0
ARC
  5
96
100
AcDbEntity
  8
2D_PROFILE
100
AcDbCircle
 10
75.44444
 20
161.769657
 30
0.0
 40
0.102711
100
AcDbArc
 50
349.957228
 51
52.010602
1001
ACAD
1000
R13OBJECT
1002
{
1005
A1
1002
}
  0
ARC
  5
97
100
AcDbEntity
  8
2D_PROFILE
100
AcDbCircle
 10
73.874167
 20
162.062209
 30
0.0
 40
1.7
100
AcDbArc
 50
183.607335
 51
349.47731
1001
ACAD
1000
R13OBJECT
1002
{
1005
A1
1002
}
  0
LINE
  5
98
100
AcDbEntity
  8
2D_PROFILE
100
AcDbLine
 10
72.075256
 20
163.777604
 30
0.0
 11
72.177535
 21
161.955248
 31
0.0
1001
ACAD
1000
R13OBJECT
1002
{
1005
A1
1002
}
  0
ARC
  5
99
100
AcDbEntity
  8
2D_PROFILE
100
AcDbCircle
 10
72.624167
 20
163.812209
 30
0.0
 40
0.55
100
AcDbArc
 50
5.351154
 51
183.607335
1001
ACAD
1000
R13OBJECT
1002
{
1005
A1
1002
}
  0
LINE
  5
9A
100
AcDbEntity
  8
2D_PROFILE
100
AcDbLine
 10
73.326564
 20
162.010916
 30
0.0
 11
73.17177
 21
163.863502
 31
0.0
1001
ACAD
1000
R13OBJECT
1002
{
1005
A1
1002
}
  0
ARC
  5
9B
100
AcDbEntity
  8
2D_PROFILE
100
AcDbCircle
 10
73.874167
 20
162.062209
 30
0.0
 40
0.55
100
AcDbArc
 50
185.351154
 51
0.0
1001
ACAD
1000
R13OBJECT
1002
{
1005
A1
1002
}
  0
LINE
  5
9C
100
AcDbEntity
  8
2D_PROFILE
100
AcDbLine
 10
74.424167
 20
168.651284
 30
0.0
 11
74.424167
 21
162.062209
 31
0.0
1001
ACAD
1000
R13OBJECT
1002
{
1005
A1
1002
}
  0
ARC
  5
9D
100
AcDbEntity
  8
2D_PROFILE
100
AcDbCircle
 10
73.424167
 20
168.651284
 30
0.0
 40
1.0
100
AcDbArc
 50
360.0
 51
90.0
1001
ACAD
1000
R13OBJECT
1002
{
1005
A1
1002
}
  0
LINE
  5
9E
100
AcDbEntity
  8
2D_PROFILE
100
AcDbLine
 10
72.374167
 20
169.651284
 30
0.0
 11
73.424167
 21
169.651284
 31
0.0
1001
ACAD
1000
R13OBJECT
1002
{
1005
A1
1002
}
  0
ARC
  5
9F
100
AcDbEntity
  8
2D_PROFILE
100
AcDbCircle
 10
72.374167
 20
168.651284
 30
0.0
 40
1.0
100
AcDbArc
 50
90.0
 51
180.0
1001
ACAD
1000
R13OBJECT
1002
{
1005
A1
1002
}
  0
ARC
  5
A0
100
AcDbEntity
  8
2D_PROFILE
100
AcDbCircle
 10
70.874167
 20
168.651284
 30
0.0
 40
0.5
100
AcDbArc
 50
270.0
 51
360.0
1001
ACAD
1000
R13OBJECT
1002
{
1005
A1
1002
}
  0
LINE
  5
A1
100
AcDbEntity
  8
2D_PROFILE
100
AcDbLine
 10
68.874167
 20
168.151284
 30
0.0
 11
70.874167
 21
168.151284
 31
0.0
  0
ENDSEC
  0
SECTION
  2
OBJECTS
  0
DICTIONARY
  5
1A
100
AcDbDictionary
  3
ACAD_GROUP
350
18
  3
ACAD_MLINESTYLE
350
19
  0
DICTIONARY
  5
18
102
{ACAD_REACTORS
330
1A
102
}
100
AcDbDictionary
  0
DICTIONARY
  5
19
102
{ACAD_REACTORS
330
1A
102
}
100
AcDbDictionary
  3
STANDARD
350
1C
  0
MLINESTYLE
  5
1C
102
{ACAD_REACTORS
330
19
102
}
100
AcDbMlineStyle
  2
STANDARD
 70
     0
  3

 62
   256
 51
90.0
 52
90.0
 71
     2
 49
0.5
 62
   256
  6
BYLAYER
 49
-0.5
 62
   256
  6
BYLAYER
  0
ENDSEC
  0
EOF
