ISO-10303-21;
HEADER;
/* Generated by software containing ST-Developer
 * from STEP Tools, Inc. (www.steptools.com) 
 */

FILE_DESCRIPTION(
/* description */ ('Zuganker G 50 M12 lang'),
/* implementation_level */ '2;1');

FILE_NAME(
/* name */ 'Q:\\ExterneArtikel_Webseite_Palkat\\SV\\SV_step\\SV7308V_A.
stp',
/* time_stamp */ '2015-11-27T08:51:51+01:00',
/* author */ ('Marina Kaa'),
/* organization */ (''),
/* preprocessor_version */ 'ST-DEVELOPER v15.6',
/* originating_system */ 'Autodesk Inventor 2015',
/* authorisation */ '');

FILE_SCHEMA (('AUTOMOTIVE_DESIGN { 1 0 10303 214 3 1 1 }'));
ENDSEC;

DATA;
#10=MECHANICAL_DESIGN_GEOMETRIC_PRESENTATION_REPRESENTATION('',(#13),#184);
#11=SHAPE_REPRESENTATION_RELATIONSHIP('SRR','None',#193,#12);
#12=ADVANCED_BREP_SHAPE_REPRESENTATION($,(#14),#183);
#13=STYLED_ITEM('',(#202),#14);
#14=MANIFOLD_SOLID_BREP('Volumenk\X\F6rper1',#77);
#15=PLANE('',#84);
#16=PLANE('',#87);
#17=B_SPLINE_CURVE_WITH_KNOTS('',3,(#122,#123,#124,#125,#126,#127,#128,
#129,#130,#131,#132,#133,#134,#135,#136,#137,#138,#139,#140,#141,#142,#143,
#144,#145,#146,#147),.UNSPECIFIED.,.F.,.F.,(4,2,2,2,2,2,2,2,2,2,2,2,4),
(0.791033343779221,0.886690442504063,0.982347541228905,1.09128518644051,
1.20022283165212,1.39114475960528,1.58206668755844,1.7729886155116,1.96391054346476,
2.07284818867637,2.18178583388798,2.27744293261282,2.37310003133766),
 .UNSPECIFIED.);
#18=B_SPLINE_CURVE_WITH_KNOTS('',3,(#148,#149,#150,#151,#152,#153,#154,
#155,#156,#157,#158,#159,#160,#161,#162,#163,#164,#165,#166,#167,#168,#169,
#170,#171,#172,#173,#174),.UNSPECIFIED.,.F.,.F.,(4,2,2,2,2,2,3,2,2,2,2,
2,4),(2.37310003133766,2.4687571300625,2.56441422878735,2.67335187399896,
2.78228951921057,2.97321144716372,3.16413337511688,3.35505530307004,3.5459772310232,
3.65491487623481,3.76385252144642,3.85950962017126,3.9551667188961),
 .UNSPECIFIED.);
#19=CYLINDRICAL_SURFACE('',#82,6.00000000000001);
#20=FACE_BOUND('',#31,.T.);
#21=FACE_BOUND('',#33,.T.);
#22=FACE_BOUND('',#34,.T.);
#23=FACE_BOUND('',#37,.T.);
#24=FACE_OUTER_BOUND('',#30,.T.);
#25=FACE_OUTER_BOUND('',#32,.T.);
#26=FACE_OUTER_BOUND('',#35,.T.);
#27=FACE_OUTER_BOUND('',#36,.T.);
#28=FACE_OUTER_BOUND('',#38,.T.);
#29=FACE_OUTER_BOUND('',#39,.T.);
#30=EDGE_LOOP('',(#56));
#31=EDGE_LOOP('',(#57));
#32=EDGE_LOOP('',(#58));
#33=EDGE_LOOP('',(#59,#60));
#34=EDGE_LOOP('',(#61));
#35=EDGE_LOOP('',(#62));
#36=EDGE_LOOP('',(#63));
#37=EDGE_LOOP('',(#64));
#38=EDGE_LOOP('',(#65));
#39=EDGE_LOOP('',(#66,#67));
#40=CIRCLE('',#80,6.00000000000001);
#41=CIRCLE('',#81,5.00000000000001);
#42=CIRCLE('',#83,6.00000000000001);
#43=CIRCLE('',#86,5.);
#44=VERTEX_POINT('',#113);
#45=VERTEX_POINT('',#115);
#46=VERTEX_POINT('',#118);
#47=VERTEX_POINT('',#120);
#48=VERTEX_POINT('',#121);
#49=VERTEX_POINT('',#177);
#50=EDGE_CURVE('',#44,#44,#40,.T.);
#51=EDGE_CURVE('',#45,#45,#41,.T.);
#52=EDGE_CURVE('',#46,#46,#42,.T.);
#53=EDGE_CURVE('',#47,#48,#17,.T.);
#54=EDGE_CURVE('',#48,#47,#18,.T.);
#55=EDGE_CURVE('',#49,#49,#43,.T.);
#56=ORIENTED_EDGE('',*,*,#50,.T.);
#57=ORIENTED_EDGE('',*,*,#51,.T.);
#58=ORIENTED_EDGE('',*,*,#52,.F.);
#59=ORIENTED_EDGE('',*,*,#53,.T.);
#60=ORIENTED_EDGE('',*,*,#54,.T.);
#61=ORIENTED_EDGE('',*,*,#50,.F.);
#62=ORIENTED_EDGE('',*,*,#51,.F.);
#63=ORIENTED_EDGE('',*,*,#55,.T.);
#64=ORIENTED_EDGE('',*,*,#52,.T.);
#65=ORIENTED_EDGE('',*,*,#55,.F.);
#66=ORIENTED_EDGE('',*,*,#53,.F.);
#67=ORIENTED_EDGE('',*,*,#54,.F.);
#68=CONICAL_SURFACE('',#79,5.50000000000001,45.0000000000001);
#69=CONICAL_SURFACE('',#85,5.5,45.0000000000003);
#70=CONICAL_SURFACE('',#88,3.,45.);
#71=ADVANCED_FACE('',(#24,#20),#68,.T.);
#72=ADVANCED_FACE('',(#25,#21,#22),#19,.T.);
#73=ADVANCED_FACE('',(#26),#15,.T.);
#74=ADVANCED_FACE('',(#27,#23),#69,.T.);
#75=ADVANCED_FACE('',(#28),#16,.T.);
#76=ADVANCED_FACE('',(#29),#70,.F.);
#77=CLOSED_SHELL('',(#71,#72,#73,#74,#75,#76));
#78=AXIS2_PLACEMENT_3D('placement',#111,#89,#90);
#79=AXIS2_PLACEMENT_3D('',#112,#91,#92);
#80=AXIS2_PLACEMENT_3D('',#114,#93,#94);
#81=AXIS2_PLACEMENT_3D('',#116,#95,#96);
#82=AXIS2_PLACEMENT_3D('',#117,#97,#98);
#83=AXIS2_PLACEMENT_3D('',#119,#99,#100);
#84=AXIS2_PLACEMENT_3D('',#175,#101,#102);
#85=AXIS2_PLACEMENT_3D('',#176,#103,#104);
#86=AXIS2_PLACEMENT_3D('',#178,#105,#106);
#87=AXIS2_PLACEMENT_3D('',#179,#107,#108);
#88=AXIS2_PLACEMENT_3D('',#180,#109,#110);
#89=DIRECTION('axis',(0.,0.,1.));
#90=DIRECTION('refdir',(1.,0.,0.));
#91=DIRECTION('center_axis',(0.,0.,1.));
#92=DIRECTION('ref_axis',(0.,-1.,0.));
#93=DIRECTION('center_axis',(0.,0.,-1.));
#94=DIRECTION('ref_axis',(0.,-1.,0.));
#95=DIRECTION('center_axis',(0.,0.,1.));
#96=DIRECTION('ref_axis',(0.,-1.,0.));
#97=DIRECTION('center_axis',(0.,0.,-1.));
#98=DIRECTION('ref_axis',(0.,1.,0.));
#99=DIRECTION('center_axis',(0.,0.,1.));
#100=DIRECTION('ref_axis',(0.,-1.,0.));
#101=DIRECTION('center_axis',(0.,0.,-1.));
#102=DIRECTION('ref_axis',(-1.,0.,0.));
#103=DIRECTION('center_axis',(0.,0.,-1.));
#104=DIRECTION('ref_axis',(0.,-1.,0.));
#105=DIRECTION('center_axis',(0.,0.,-1.));
#106=DIRECTION('ref_axis',(0.,-1.,0.));
#107=DIRECTION('center_axis',(0.,0.,1.));
#108=DIRECTION('ref_axis',(1.,0.,0.));
#109=DIRECTION('center_axis',(1.,0.,0.));
#110=DIRECTION('ref_axis',(0.,0.,1.));
#111=CARTESIAN_POINT('',(0.,0.,0.));
#112=CARTESIAN_POINT('Origin',(0.,0.,-59.5));
#113=CARTESIAN_POINT('',(7.34788079488412E-16,6.00000000000001,-59.));
#114=CARTESIAN_POINT('Origin',(0.,0.,-59.));
#115=CARTESIAN_POINT('',(-6.12323399573678E-16,5.00000000000001,-60.));
#116=CARTESIAN_POINT('Origin',(0.,0.,-60.));
#117=CARTESIAN_POINT('Origin',(0.,0.,-44.5));
#118=CARTESIAN_POINT('',(-7.34788079488412E-16,6.00000000000001,-0.999999999999996));
#119=CARTESIAN_POINT('Origin',(0.,0.,-0.999999999999996));
#120=CARTESIAN_POINT('',(6.00000000000001,0.,-19.));
#121=CARTESIAN_POINT('',(6.00000000000001,0.,-7.));
#122=CARTESIAN_POINT('Ctrl Pts',(6.00000000000001,-6.93889390390723E-17,
-19.));
#123=CARTESIAN_POINT('Ctrl Pts',(6.00000000000001,-0.318856995749474,-19.));
#124=CARTESIAN_POINT('Ctrl Pts',(5.97247876080393,-0.65958113560018,-18.9453305576781));
#125=CARTESIAN_POINT('Ctrl Pts',(5.86633898118755,-1.30062152532763,-18.7300799728422));
#126=CARTESIAN_POINT('Ctrl Pts',(5.78850078199156,-1.601397891709,-18.5704864095542));
#127=CARTESIAN_POINT('Ctrl Pts',(5.61201747597235,-2.14420702043316,-18.1972411882743));
#128=CARTESIAN_POINT('Ctrl Pts',(5.49487867836402,-2.42533765204821,-17.9434119030741));
#129=CARTESIAN_POINT('Ctrl Pts',(5.24940422435544,-2.91885404607907,-17.3774909602401));
#130=CARTESIAN_POINT('Ctrl Pts',(5.1217924756341,-3.13196013099747,-17.0657139677627));
#131=CARTESIAN_POINT('Ctrl Pts',(4.81150729805338,-3.60252612610597,-16.2402717874572));
#132=CARTESIAN_POINT('Ctrl Pts',(4.60930464536533,-3.84714689481865,-15.6217380995677));
#133=CARTESIAN_POINT('Ctrl Pts',(4.32211533736875,-4.16719881097873,-14.3204092614629));
#134=CARTESIAN_POINT('Ctrl Pts',(4.24264068711929,-4.24264068711929,-13.6364064265105));
#135=CARTESIAN_POINT('Ctrl Pts',(4.24264068711929,-4.24264068711929,-12.3635935734895));
#136=CARTESIAN_POINT('Ctrl Pts',(4.32211533736875,-4.16719881097873,-11.6795907385372));
#137=CARTESIAN_POINT('Ctrl Pts',(4.60930464536533,-3.84714689481865,-10.3782619004323));
#138=CARTESIAN_POINT('Ctrl Pts',(4.81150729805337,-3.60252612610597,-9.75972821254281));
#139=CARTESIAN_POINT('Ctrl Pts',(5.1217924756341,-3.13196013099747,-8.93428603223735));
#140=CARTESIAN_POINT('Ctrl Pts',(5.24940422435544,-2.91885404607907,-8.62250903975994));
#141=CARTESIAN_POINT('Ctrl Pts',(5.49487867836402,-2.42533765204821,-8.05658809692587));
#142=CARTESIAN_POINT('Ctrl Pts',(5.61201747597235,-2.14420702043316,-7.80275881172569));
#143=CARTESIAN_POINT('Ctrl Pts',(5.78850078199156,-1.601397891709,-7.4295135904458));
#144=CARTESIAN_POINT('Ctrl Pts',(5.86633898118755,-1.30062152532763,-7.2699200271578));
#145=CARTESIAN_POINT('Ctrl Pts',(5.97247876080393,-0.659581135600182,-7.05466944232192));
#146=CARTESIAN_POINT('Ctrl Pts',(6.00000000000001,-0.318856995749474,-7.));
#147=CARTESIAN_POINT('Ctrl Pts',(6.00000000000001,1.38777878078145E-16,
-7.));
#148=CARTESIAN_POINT('Ctrl Pts',(6.00000000000001,0.,-7.));
#149=CARTESIAN_POINT('Ctrl Pts',(6.00000000000001,0.318856995749472,-7.));
#150=CARTESIAN_POINT('Ctrl Pts',(5.97247876080392,0.659581135600177,-7.05466944232191));
#151=CARTESIAN_POINT('Ctrl Pts',(5.86633898118755,1.30062152532763,-7.2699200271578));
#152=CARTESIAN_POINT('Ctrl Pts',(5.78850078199156,1.601397891709,-7.42951359044579));
#153=CARTESIAN_POINT('Ctrl Pts',(5.61201747597236,2.14420702043316,-7.80275881172568));
#154=CARTESIAN_POINT('Ctrl Pts',(5.49487867836402,2.4253376520482,-8.05658809692587));
#155=CARTESIAN_POINT('Ctrl Pts',(5.24940422435544,2.91885404607907,-8.62250903975993));
#156=CARTESIAN_POINT('Ctrl Pts',(5.1217924756341,3.13196013099747,-8.93428603223734));
#157=CARTESIAN_POINT('Ctrl Pts',(4.81150729805338,3.60252612610597,-9.75972821254281));
#158=CARTESIAN_POINT('Ctrl Pts',(4.60930464536533,3.84714689481865,-10.3782619004323));
#159=CARTESIAN_POINT('Ctrl Pts',(4.32211533736875,4.16719881097873,-11.6795907385372));
#160=CARTESIAN_POINT('Ctrl Pts',(4.24264068711929,4.24264068711929,-12.3635935734895));
#161=CARTESIAN_POINT('Ctrl Pts',(4.24264068711929,4.24264068711929,-13.));
#162=CARTESIAN_POINT('Ctrl Pts',(4.24264068711929,4.24264068711929,-13.6364064265105));
#163=CARTESIAN_POINT('Ctrl Pts',(4.32211533736875,4.16719881097873,-14.3204092614629));
#164=CARTESIAN_POINT('Ctrl Pts',(4.60930464536533,3.84714689481865,-15.6217380995677));
#165=CARTESIAN_POINT('Ctrl Pts',(4.81150729805338,3.60252612610597,-16.2402717874572));
#166=CARTESIAN_POINT('Ctrl Pts',(5.1217924756341,3.13196013099747,-17.0657139677627));
#167=CARTESIAN_POINT('Ctrl Pts',(5.24940422435544,2.91885404607907,-17.3774909602401));
#168=CARTESIAN_POINT('Ctrl Pts',(5.49487867836402,2.42533765204821,-17.9434119030741));
#169=CARTESIAN_POINT('Ctrl Pts',(5.61201747597235,2.14420702043316,-18.1972411882743));
#170=CARTESIAN_POINT('Ctrl Pts',(5.78850078199156,1.601397891709,-18.5704864095542));
#171=CARTESIAN_POINT('Ctrl Pts',(5.86633898118755,1.30062152532763,-18.7300799728422));
#172=CARTESIAN_POINT('Ctrl Pts',(5.97247876080392,0.65958113560018,-18.9453305576781));
#173=CARTESIAN_POINT('Ctrl Pts',(6.00000000000001,0.318856995749476,-19.));
#174=CARTESIAN_POINT('Ctrl Pts',(6.00000000000001,1.94289029309402E-15,
-19.));
#175=CARTESIAN_POINT('Origin',(0.,3.,-60.));
#176=CARTESIAN_POINT('Origin',(0.,0.,-0.499999999999998));
#177=CARTESIAN_POINT('',(6.12323399573677E-16,5.,0.));
#178=CARTESIAN_POINT('Origin',(0.,0.,0.));
#179=CARTESIAN_POINT('Origin',(0.,3.,0.));
#180=CARTESIAN_POINT('Origin',(3.,0.,-13.));
#181=UNCERTAINTY_MEASURE_WITH_UNIT(LENGTH_MEASURE(0.01),#185,
'DISTANCE_ACCURACY_VALUE',
'Maximum model space distance between geometric entities at asserted c
onnectivities');
#182=UNCERTAINTY_MEASURE_WITH_UNIT(LENGTH_MEASURE(1.E-6),#185,
'DISTANCE_ACCURACY_VALUE',
'Maximum model space distance between geometric entities at asserted c
onnectivities');
#183=(
GEOMETRIC_REPRESENTATION_CONTEXT(3)
GLOBAL_UNCERTAINTY_ASSIGNED_CONTEXT((#181))
GLOBAL_UNIT_ASSIGNED_CONTEXT((#185,#188,#186))
REPRESENTATION_CONTEXT('','3D')
);
#184=(
GEOMETRIC_REPRESENTATION_CONTEXT(3)
GLOBAL_UNCERTAINTY_ASSIGNED_CONTEXT((#182))
GLOBAL_UNIT_ASSIGNED_CONTEXT((#185,#188,#186))
REPRESENTATION_CONTEXT('','3D')
);
#185=(
LENGTH_UNIT()
NAMED_UNIT(*)
SI_UNIT(.MILLI.,.METRE.)
);
#186=(
NAMED_UNIT(*)
SI_UNIT($,.STERADIAN.)
SOLID_ANGLE_UNIT()
);
#187=DIMENSIONAL_EXPONENTS(0.,0.,0.,0.,0.,0.,0.);
#188=(
CONVERSION_BASED_UNIT('degree',#190)
NAMED_UNIT(#187)
PLANE_ANGLE_UNIT()
);
#189=(
NAMED_UNIT(*)
PLANE_ANGLE_UNIT()
SI_UNIT($,.RADIAN.)
);
#190=PLANE_ANGLE_MEASURE_WITH_UNIT(PLANE_ANGLE_MEASURE(0.01745329252),#189);
#191=SHAPE_DEFINITION_REPRESENTATION(#192,#193);
#192=PRODUCT_DEFINITION_SHAPE('',$,#195);
#193=SHAPE_REPRESENTATION('',(#78),#183);
#194=PRODUCT_DEFINITION_CONTEXT('part definition',#199,'design');
#195=PRODUCT_DEFINITION('SV7308V_A','SV7308V_A',#196,#194);
#196=PRODUCT_DEFINITION_FORMATION('',$,#201);
#197=PRODUCT_RELATED_PRODUCT_CATEGORY('SV7308V_A','SV7308V_A',(#201));
#198=APPLICATION_PROTOCOL_DEFINITION('international standard',
'automotive_design',2009,#199);
#199=APPLICATION_CONTEXT(
'Core Data for Automotive Mechanical Design Process');
#200=PRODUCT_CONTEXT('part definition',#199,'mechanical');
#201=PRODUCT('SV7308V_A','SV7308V_A',$,(#200));
#202=PRESENTATION_STYLE_ASSIGNMENT((#203));
#203=SURFACE_STYLE_USAGE(.BOTH.,#204);
#204=SURFACE_SIDE_STYLE($,(#205));
#205=SURFACE_STYLE_FILL_AREA(#206);
#206=FILL_AREA_STYLE($,(#207));
#207=FILL_AREA_STYLE_COLOUR($,#208);
#208=COLOUR_RGB('',0.63921568627451,0.63921568627451,0.686274509803922);
ENDSEC;
END-ISO-10303-21;
