ISO-10303-21;
HEADER;
/* Generated by software containing ST-Developer
 * from STEP Tools, Inc. (www.steptools.com) 
 */

FILE_DESCRIPTION(
/* description */ ('Universalspanner 30'),
/* implementation_level */ '2;1');

FILE_NAME(
/* name */ 'Q:\\ExterneArtikel_Webseite_Palkat\\SV\\SV_step\\SV1802V_A.
stp',
/* time_stamp */ '2015-11-30T12:04:26+01:00',
/* author */ ('Marina Kaa'),
/* organization */ (''),
/* preprocessor_version */ 'ST-DEVELOPER v15.6',
/* originating_system */ 'Autodesk Inventor 2015',
/* authorisation */ '');

FILE_SCHEMA (('AUTOMOTIVE_DESIGN { 1 0 10303 214 3 1 1 }'));
ENDSEC;

DATA;
#10=MECHANICAL_DESIGN_GEOMETRIC_PRESENTATION_REPRESENTATION('',(#13),#406);
#11=SHAPE_REPRESENTATION_RELATIONSHIP('SRR','None',#415,#12);
#12=ADVANCED_BREP_SHAPE_REPRESENTATION($,(#14),#405);
#13=STYLED_ITEM('',(#424),#14);
#14=MANIFOLD_SOLID_BREP('Volumenk\X\F6rper1',#194);
#15=FACE_BOUND('',#55,.T.);
#16=FACE_BOUND('',#56,.T.);
#17=FACE_BOUND('',#57,.T.);
#18=FACE_BOUND('',#59,.T.);
#19=FACE_BOUND('',#61,.T.);
#20=FACE_BOUND('',#63,.T.);
#21=B_SPLINE_CURVE_WITH_KNOTS('',3,(#315,#316,#317,#318,#319,#320,#321,
#322,#323,#324,#325,#326,#327,#328,#329,#330,#331,#332,#333,#334,#335,#336),
 .UNSPECIFIED.,.F.,.F.,(4,2,2,2,2,2,2,2,2,2,4),(0.884777709308021,1.10285544162029,
1.32093317393257,1.5452442962743,1.65739985744517,1.76955541861604,1.88171097978691,
1.99386654095778,2.21817766329952,2.43625539561179,2.65433312792406),
 .UNSPECIFIED.);
#22=B_SPLINE_CURVE_WITH_KNOTS('',3,(#337,#338,#339,#340,#341,#342,#343,
#344,#345,#346,#347,#348,#349,#350,#351,#352,#353,#354,#355,#356,#357,#358,
#359),.UNSPECIFIED.,.F.,.F.,(4,2,2,2,2,3,2,2,2,2,4),(2.65433312792406,2.87241086023634,
3.09048859254861,3.31479971489035,3.42695527606122,3.53911083723208,3.65126639840295,
3.76342195957382,3.98773308191556,4.20581081422783,4.4238885465401),
 .UNSPECIFIED.);
#23=B_SPLINE_CURVE_WITH_KNOTS('',3,(#361,#362,#363,#364,#365,#366,#367,
#368,#369,#370,#371,#372,#373,#374,#375,#376,#377,#378,#379,#380,#381,#382,
#383,#384,#385,#386,#387,#388,#389,#390,#391,#392,#393,#394),
 .UNSPECIFIED.,.T.,.F.,(4,2,2,2,2,2,2,2,2,2,2,2,2,2,2,2,4),(0.,0.116696998344709,
0.233393996689418,0.349919402180791,0.466444807672164,0.582970213163538,
0.699495618654911,0.81619261699962,0.932889615344329,1.04958661368904,1.16628361203375,
1.28280901752512,1.39933442301649,1.51585982850787,1.63238523399924,1.74908223234395,
1.86577923068866),.UNSPECIFIED.);
#24=CYLINDRICAL_SURFACE('',#210,7.);
#25=CYLINDRICAL_SURFACE('',#212,3.05);
#26=CYLINDRICAL_SURFACE('',#214,5.5);
#27=CIRCLE('',#202,7.);
#28=CIRCLE('',#203,7.);
#29=CIRCLE('',#206,7.);
#30=CIRCLE('',#207,7.);
#31=CIRCLE('',#209,7.);
#32=CIRCLE('',#211,7.);
#33=CIRCLE('',#213,3.05);
#34=CIRCLE('',#215,5.5);
#35=FACE_OUTER_BOUND('',#47,.T.);
#36=FACE_OUTER_BOUND('',#48,.T.);
#37=FACE_OUTER_BOUND('',#49,.T.);
#38=FACE_OUTER_BOUND('',#50,.T.);
#39=FACE_OUTER_BOUND('',#51,.T.);
#40=FACE_OUTER_BOUND('',#52,.T.);
#41=FACE_OUTER_BOUND('',#53,.T.);
#42=FACE_OUTER_BOUND('',#54,.T.);
#43=FACE_OUTER_BOUND('',#58,.T.);
#44=FACE_OUTER_BOUND('',#60,.T.);
#45=FACE_OUTER_BOUND('',#62,.T.);
#46=FACE_OUTER_BOUND('',#64,.T.);
#47=EDGE_LOOP('',(#127,#128));
#48=EDGE_LOOP('',(#129,#130));
#49=EDGE_LOOP('',(#131,#132,#133,#134));
#50=EDGE_LOOP('',(#135,#136,#137,#138));
#51=EDGE_LOOP('',(#139,#140,#141,#142));
#52=EDGE_LOOP('',(#143,#144,#145,#146));
#53=EDGE_LOOP('',(#147,#148));
#54=EDGE_LOOP('',(#149,#150,#151,#152,#153,#154,#155,#156));
#55=EDGE_LOOP('',(#157,#158));
#56=EDGE_LOOP('',(#159));
#57=EDGE_LOOP('',(#160,#161,#162,#163));
#58=EDGE_LOOP('',(#164));
#59=EDGE_LOOP('',(#165));
#60=EDGE_LOOP('',(#166,#167));
#61=EDGE_LOOP('',(#168));
#62=EDGE_LOOP('',(#169));
#63=EDGE_LOOP('',(#170));
#64=EDGE_LOOP('',(#171,#172));
#65=LINE('',#279,#75);
#66=LINE('',#284,#76);
#67=LINE('',#288,#77);
#68=LINE('',#290,#78);
#69=LINE('',#292,#79);
#70=LINE('',#293,#80);
#71=LINE('',#298,#81);
#72=LINE('',#302,#82);
#73=LINE('',#304,#83);
#74=LINE('',#305,#84);
#75=VECTOR('',#224,12.6491106406735);
#76=VECTOR('',#229,12.6491106406735);
#77=VECTOR('',#232,0.499999999999999);
#78=VECTOR('',#233,13.9642400437689);
#79=VECTOR('',#234,0.499999999999999);
#80=VECTOR('',#235,13.9642400437689);
#81=VECTOR('',#240,13.9642400437689);
#82=VECTOR('',#245,0.499999999999999);
#83=VECTOR('',#246,13.9642400437689);
#84=VECTOR('',#247,0.499999999999999);
#85=ELLIPSE('',#197,9.89949493661167,7.);
#86=ELLIPSE('',#199,9.89949493661167,7.);
#87=VERTEX_POINT('',#276);
#88=VERTEX_POINT('',#277);
#89=VERTEX_POINT('',#281);
#90=VERTEX_POINT('',#282);
#91=VERTEX_POINT('',#286);
#92=VERTEX_POINT('',#287);
#93=VERTEX_POINT('',#289);
#94=VERTEX_POINT('',#291);
#95=VERTEX_POINT('',#295);
#96=VERTEX_POINT('',#297);
#97=VERTEX_POINT('',#301);
#98=VERTEX_POINT('',#303);
#99=VERTEX_POINT('',#313);
#100=VERTEX_POINT('',#314);
#101=VERTEX_POINT('',#360);
#102=VERTEX_POINT('',#396);
#103=VERTEX_POINT('',#399);
#104=EDGE_CURVE('',#87,#88,#85,.T.);
#105=EDGE_CURVE('',#88,#87,#65,.T.);
#106=EDGE_CURVE('',#89,#90,#86,.T.);
#107=EDGE_CURVE('',#90,#89,#66,.T.);
#108=EDGE_CURVE('',#91,#92,#67,.T.);
#109=EDGE_CURVE('',#93,#91,#68,.T.);
#110=EDGE_CURVE('',#94,#93,#69,.T.);
#111=EDGE_CURVE('',#92,#94,#70,.T.);
#112=EDGE_CURVE('',#95,#91,#27,.T.);
#113=EDGE_CURVE('',#96,#95,#71,.T.);
#114=EDGE_CURVE('',#93,#96,#28,.T.);
#115=EDGE_CURVE('',#97,#95,#72,.T.);
#116=EDGE_CURVE('',#98,#97,#73,.T.);
#117=EDGE_CURVE('',#96,#98,#74,.T.);
#118=EDGE_CURVE('',#90,#87,#29,.T.);
#119=EDGE_CURVE('',#88,#89,#30,.T.);
#120=EDGE_CURVE('',#92,#94,#31,.T.);
#121=EDGE_CURVE('',#98,#97,#32,.T.);
#122=EDGE_CURVE('',#99,#100,#21,.T.);
#123=EDGE_CURVE('',#100,#99,#22,.T.);
#124=EDGE_CURVE('',#101,#101,#23,.T.);
#125=EDGE_CURVE('',#102,#102,#33,.T.);
#126=EDGE_CURVE('',#103,#103,#34,.T.);
#127=ORIENTED_EDGE('',*,*,#104,.F.);
#128=ORIENTED_EDGE('',*,*,#105,.F.);
#129=ORIENTED_EDGE('',*,*,#106,.F.);
#130=ORIENTED_EDGE('',*,*,#107,.F.);
#131=ORIENTED_EDGE('',*,*,#108,.F.);
#132=ORIENTED_EDGE('',*,*,#109,.F.);
#133=ORIENTED_EDGE('',*,*,#110,.F.);
#134=ORIENTED_EDGE('',*,*,#111,.F.);
#135=ORIENTED_EDGE('',*,*,#112,.F.);
#136=ORIENTED_EDGE('',*,*,#113,.F.);
#137=ORIENTED_EDGE('',*,*,#114,.F.);
#138=ORIENTED_EDGE('',*,*,#109,.T.);
#139=ORIENTED_EDGE('',*,*,#115,.F.);
#140=ORIENTED_EDGE('',*,*,#116,.F.);
#141=ORIENTED_EDGE('',*,*,#117,.F.);
#142=ORIENTED_EDGE('',*,*,#113,.T.);
#143=ORIENTED_EDGE('',*,*,#105,.T.);
#144=ORIENTED_EDGE('',*,*,#118,.F.);
#145=ORIENTED_EDGE('',*,*,#107,.T.);
#146=ORIENTED_EDGE('',*,*,#119,.F.);
#147=ORIENTED_EDGE('',*,*,#111,.T.);
#148=ORIENTED_EDGE('',*,*,#120,.F.);
#149=ORIENTED_EDGE('',*,*,#115,.T.);
#150=ORIENTED_EDGE('',*,*,#112,.T.);
#151=ORIENTED_EDGE('',*,*,#108,.T.);
#152=ORIENTED_EDGE('',*,*,#120,.T.);
#153=ORIENTED_EDGE('',*,*,#110,.T.);
#154=ORIENTED_EDGE('',*,*,#114,.T.);
#155=ORIENTED_EDGE('',*,*,#117,.T.);
#156=ORIENTED_EDGE('',*,*,#121,.T.);
#157=ORIENTED_EDGE('',*,*,#122,.T.);
#158=ORIENTED_EDGE('',*,*,#123,.T.);
#159=ORIENTED_EDGE('',*,*,#124,.T.);
#160=ORIENTED_EDGE('',*,*,#104,.T.);
#161=ORIENTED_EDGE('',*,*,#119,.T.);
#162=ORIENTED_EDGE('',*,*,#106,.T.);
#163=ORIENTED_EDGE('',*,*,#118,.T.);
#164=ORIENTED_EDGE('',*,*,#124,.F.);
#165=ORIENTED_EDGE('',*,*,#125,.F.);
#166=ORIENTED_EDGE('',*,*,#122,.F.);
#167=ORIENTED_EDGE('',*,*,#123,.F.);
#168=ORIENTED_EDGE('',*,*,#126,.F.);
#169=ORIENTED_EDGE('',*,*,#126,.T.);
#170=ORIENTED_EDGE('',*,*,#125,.T.);
#171=ORIENTED_EDGE('',*,*,#116,.T.);
#172=ORIENTED_EDGE('',*,*,#121,.F.);
#173=PLANE('',#196);
#174=PLANE('',#198);
#175=PLANE('',#200);
#176=PLANE('',#201);
#177=PLANE('',#204);
#178=PLANE('',#205);
#179=PLANE('',#208);
#180=PLANE('',#216);
#181=PLANE('',#217);
#182=ADVANCED_FACE('',(#35),#173,.F.);
#183=ADVANCED_FACE('',(#36),#174,.F.);
#184=ADVANCED_FACE('',(#37),#175,.F.);
#185=ADVANCED_FACE('',(#38),#176,.F.);
#186=ADVANCED_FACE('',(#39),#177,.F.);
#187=ADVANCED_FACE('',(#40),#178,.F.);
#188=ADVANCED_FACE('',(#41),#179,.T.);
#189=ADVANCED_FACE('',(#42,#15,#16,#17),#24,.T.);
#190=ADVANCED_FACE('',(#43,#18),#25,.F.);
#191=ADVANCED_FACE('',(#44,#19),#26,.F.);
#192=ADVANCED_FACE('',(#45,#20),#180,.T.);
#193=ADVANCED_FACE('',(#46),#181,.T.);
#194=CLOSED_SHELL('',(#182,#183,#184,#185,#186,#187,#188,#189,#190,#191,
#192,#193));
#195=AXIS2_PLACEMENT_3D('placement',#274,#218,#219);
#196=AXIS2_PLACEMENT_3D('',#275,#220,#221);
#197=AXIS2_PLACEMENT_3D('',#278,#222,#223);
#198=AXIS2_PLACEMENT_3D('',#280,#225,#226);
#199=AXIS2_PLACEMENT_3D('',#283,#227,#228);
#200=AXIS2_PLACEMENT_3D('',#285,#230,#231);
#201=AXIS2_PLACEMENT_3D('',#294,#236,#237);
#202=AXIS2_PLACEMENT_3D('',#296,#238,#239);
#203=AXIS2_PLACEMENT_3D('',#299,#241,#242);
#204=AXIS2_PLACEMENT_3D('',#300,#243,#244);
#205=AXIS2_PLACEMENT_3D('',#306,#248,#249);
#206=AXIS2_PLACEMENT_3D('',#307,#250,#251);
#207=AXIS2_PLACEMENT_3D('',#308,#252,#253);
#208=AXIS2_PLACEMENT_3D('',#309,#254,#255);
#209=AXIS2_PLACEMENT_3D('',#310,#256,#257);
#210=AXIS2_PLACEMENT_3D('',#311,#258,#259);
#211=AXIS2_PLACEMENT_3D('',#312,#260,#261);
#212=AXIS2_PLACEMENT_3D('',#395,#262,#263);
#213=AXIS2_PLACEMENT_3D('',#397,#264,#265);
#214=AXIS2_PLACEMENT_3D('',#398,#266,#267);
#215=AXIS2_PLACEMENT_3D('',#400,#268,#269);
#216=AXIS2_PLACEMENT_3D('',#401,#270,#271);
#217=AXIS2_PLACEMENT_3D('',#402,#272,#273);
#218=DIRECTION('axis',(0.,0.,1.));
#219=DIRECTION('refdir',(1.,0.,0.));
#220=DIRECTION('center_axis',(-0.707106781186548,0.,-0.707106781186548));
#221=DIRECTION('ref_axis',(-0.707106781186548,0.,0.707106781186548));
#222=DIRECTION('center_axis',(-0.707106781186548,0.,-0.707106781186548));
#223=DIRECTION('ref_axis',(-0.707106781186547,0.,0.707106781186547));
#224=DIRECTION('',(0.,1.,0.));
#225=DIRECTION('center_axis',(0.707106781186547,0.,-0.707106781186548));
#226=DIRECTION('ref_axis',(-0.707106781186548,0.,-0.707106781186547));
#227=DIRECTION('center_axis',(0.707106781186547,0.,-0.707106781186548));
#228=DIRECTION('ref_axis',(-0.707106781186548,0.,-0.707106781186548));
#229=DIRECTION('',(0.,-1.,0.));
#230=DIRECTION('center_axis',(-1.,0.,-1.38777878078145E-16));
#231=DIRECTION('ref_axis',(-1.4432899320127E-16,0.,1.));
#232=DIRECTION('',(0.,0.,-1.));
#233=DIRECTION('',(0.,1.,0.));
#234=DIRECTION('',(0.,0.,1.));
#235=DIRECTION('',(0.,-1.,0.));
#236=DIRECTION('center_axis',(0.,0.,1.));
#237=DIRECTION('ref_axis',(1.,0.,0.));
#238=DIRECTION('center_axis',(0.,0.,1.));
#239=DIRECTION('ref_axis',(-1.,0.,0.));
#240=DIRECTION('',(0.,1.,0.));
#241=DIRECTION('center_axis',(0.,0.,1.));
#242=DIRECTION('ref_axis',(-1.,0.,0.));
#243=DIRECTION('center_axis',(1.,0.,-1.38777878078145E-16));
#244=DIRECTION('ref_axis',(-1.38777878078145E-16,0.,-1.));
#245=DIRECTION('',(0.,0.,1.));
#246=DIRECTION('',(0.,1.,0.));
#247=DIRECTION('',(0.,0.,-1.));
#248=DIRECTION('center_axis',(0.,0.,-1.));
#249=DIRECTION('ref_axis',(-1.,0.,0.));
#250=DIRECTION('center_axis',(0.,0.,-1.));
#251=DIRECTION('ref_axis',(-1.,0.,0.));
#252=DIRECTION('center_axis',(0.,0.,-1.));
#253=DIRECTION('ref_axis',(-1.,0.,0.));
#254=DIRECTION('center_axis',(0.,0.,-1.));
#255=DIRECTION('ref_axis',(-1.,0.,0.));
#256=DIRECTION('center_axis',(0.,0.,1.));
#257=DIRECTION('ref_axis',(-1.,0.,0.));
#258=DIRECTION('center_axis',(0.,0.,1.));
#259=DIRECTION('ref_axis',(-1.,0.,0.));
#260=DIRECTION('center_axis',(0.,0.,1.));
#261=DIRECTION('ref_axis',(-1.,0.,0.));
#262=DIRECTION('center_axis',(0.,1.,0.));
#263=DIRECTION('ref_axis',(-1.,0.,0.));
#264=DIRECTION('center_axis',(0.,1.,0.));
#265=DIRECTION('ref_axis',(-1.,0.,0.));
#266=DIRECTION('center_axis',(0.,1.,0.));
#267=DIRECTION('ref_axis',(1.,0.,0.));
#268=DIRECTION('center_axis',(0.,-1.,0.));
#269=DIRECTION('ref_axis',(1.,0.,0.));
#270=DIRECTION('center_axis',(0.,-1.,0.));
#271=DIRECTION('ref_axis',(0.,0.,-1.));
#272=DIRECTION('center_axis',(0.,0.,-1.));
#273=DIRECTION('ref_axis',(-1.,0.,0.));
#274=CARTESIAN_POINT('',(0.,0.,0.));
#275=CARTESIAN_POINT('Origin',(3.,-7.,6.5));
#276=CARTESIAN_POINT('',(3.,6.32455532033676,6.5));
#277=CARTESIAN_POINT('',(3.,-6.32455532033676,6.5));
#278=CARTESIAN_POINT('Origin',(0.,0.,9.5));
#279=CARTESIAN_POINT('',(3.,-3.5,6.5));
#280=CARTESIAN_POINT('Origin',(-7.,-7.,2.5));
#281=CARTESIAN_POINT('',(-3.,-6.32455532033676,6.5));
#282=CARTESIAN_POINT('',(-3.,6.32455532033676,6.5));
#283=CARTESIAN_POINT('Origin',(0.,0.,9.5));
#284=CARTESIAN_POINT('',(-3.,-3.5,6.5));
#285=CARTESIAN_POINT('Origin',(-0.5,-7.,-6.));
#286=CARTESIAN_POINT('',(-0.5,6.98212002188447,-6.));
#287=CARTESIAN_POINT('',(-0.5,6.98212002188447,-6.5));
#288=CARTESIAN_POINT('',(-0.500000000000001,6.98212002188447,0.));
#289=CARTESIAN_POINT('',(-0.5,-6.98212002188447,-6.));
#290=CARTESIAN_POINT('',(-0.5,-7.,-6.));
#291=CARTESIAN_POINT('',(-0.5,-6.98212002188447,-6.5));
#292=CARTESIAN_POINT('',(-0.500000000000001,-6.98212002188447,0.));
#293=CARTESIAN_POINT('',(-0.5,-3.5,-6.5));
#294=CARTESIAN_POINT('Origin',(0.5,-7.,-6.));
#295=CARTESIAN_POINT('',(0.5,6.98212002188447,-6.));
#296=CARTESIAN_POINT('Origin',(0.,0.,-6.));
#297=CARTESIAN_POINT('',(0.5,-6.98212002188447,-6.));
#298=CARTESIAN_POINT('',(0.5,-7.,-6.));
#299=CARTESIAN_POINT('Origin',(0.,0.,-6.));
#300=CARTESIAN_POINT('Origin',(0.5,-7.,-6.5));
#301=CARTESIAN_POINT('',(0.5,6.98212002188447,-6.5));
#302=CARTESIAN_POINT('',(0.500000000000001,6.98212002188447,0.));
#303=CARTESIAN_POINT('',(0.5,-6.98212002188447,-6.5));
#304=CARTESIAN_POINT('',(0.5,-3.5,-6.5));
#305=CARTESIAN_POINT('',(0.500000000000001,-6.98212002188447,0.));
#306=CARTESIAN_POINT('Origin',(0.,0.,6.5));
#307=CARTESIAN_POINT('Origin',(0.,0.,6.5));
#308=CARTESIAN_POINT('Origin',(0.,0.,6.5));
#309=CARTESIAN_POINT('Origin',(0.,0.,-6.5));
#310=CARTESIAN_POINT('Origin',(0.,0.,-6.5));
#311=CARTESIAN_POINT('Origin',(0.,0.,0.));
#312=CARTESIAN_POINT('Origin',(0.,0.,-6.5));
#313=CARTESIAN_POINT('',(0.,-7.,5.5));
#314=CARTESIAN_POINT('',(0.,-7.,-5.5));
#315=CARTESIAN_POINT('Ctrl Pts',(5.55111512312578E-16,-7.,5.5));
#316=CARTESIAN_POINT('Ctrl Pts',(0.726925774374243,-7.,5.5));
#317=CARTESIAN_POINT('Ctrl Pts',(1.4801865165199,-6.87828608217354,5.34748640421878));
#318=CARTESIAN_POINT('Ctrl Pts',(2.82814996217741,-6.44230837852258,4.77369123409632));
#319=CARTESIAN_POINT('Ctrl Pts',(3.42433884760605,-6.13076939848925,4.35383574544598));
#320=CARTESIAN_POINT('Ctrl Pts',(4.36711980850455,-5.50080088534134,3.41105478454747));
#321=CARTESIAN_POINT('Ctrl Pts',(4.77950321532954,-5.13065352868787,2.81568729268317));
#322=CARTESIAN_POINT('Ctrl Pts',(5.2032202205757,-4.68703690659533,1.81849775151953));
#323=CARTESIAN_POINT('Ctrl Pts',(5.31319627644788,-4.55888740591992,1.4682804864338));
#324=CARTESIAN_POINT('Ctrl Pts',(5.46161817692542,-4.3799812862233,0.746075739510429));
#325=CARTESIAN_POINT('Ctrl Pts',(5.5,-4.33012701892219,0.373851870569564));
#326=CARTESIAN_POINT('Ctrl Pts',(5.5,-4.33012701892219,-0.373851870569562));
#327=CARTESIAN_POINT('Ctrl Pts',(5.46161817692542,-4.3799812862233,-0.746075739510427));
#328=CARTESIAN_POINT('Ctrl Pts',(5.31319627644788,-4.55888740591992,-1.4682804864338));
#329=CARTESIAN_POINT('Ctrl Pts',(5.2032202205757,-4.68703690659533,-1.81849775151952));
#330=CARTESIAN_POINT('Ctrl Pts',(4.77950321532954,-5.13065352868786,-2.81568729268317));
#331=CARTESIAN_POINT('Ctrl Pts',(4.36711980850455,-5.50080088534134,-3.41105478454747));
#332=CARTESIAN_POINT('Ctrl Pts',(3.42433884760605,-6.13076939848924,-4.35383574544598));
#333=CARTESIAN_POINT('Ctrl Pts',(2.82814996217741,-6.44230837852258,-4.77369123409632));
#334=CARTESIAN_POINT('Ctrl Pts',(1.4801865165199,-6.87828608217354,-5.34748640421878));
#335=CARTESIAN_POINT('Ctrl Pts',(0.726925774374243,-7.,-5.5));
#336=CARTESIAN_POINT('Ctrl Pts',(4.16333634234434E-16,-7.,-5.5));
#337=CARTESIAN_POINT('Ctrl Pts',(-4.16333634234434E-16,-7.,-5.5));
#338=CARTESIAN_POINT('Ctrl Pts',(-0.726925774374241,-7.,-5.5));
#339=CARTESIAN_POINT('Ctrl Pts',(-1.4801865165199,-6.87828608217354,-5.34748640421878));
#340=CARTESIAN_POINT('Ctrl Pts',(-2.82814996217741,-6.44230837852258,-4.77369123409633));
#341=CARTESIAN_POINT('Ctrl Pts',(-3.42433884760604,-6.13076939848925,-4.35383574544598));
#342=CARTESIAN_POINT('Ctrl Pts',(-4.36711980850455,-5.50080088534135,-3.41105478454748));
#343=CARTESIAN_POINT('Ctrl Pts',(-4.77950321532954,-5.13065352868787,-2.81568729268318));
#344=CARTESIAN_POINT('Ctrl Pts',(-5.2032202205757,-4.68703690659533,-1.81849775151953));
#345=CARTESIAN_POINT('Ctrl Pts',(-5.31319627644788,-4.55888740591992,-1.4682804864338));
#346=CARTESIAN_POINT('Ctrl Pts',(-5.46161817692542,-4.3799812862233,-0.746075739510428));
#347=CARTESIAN_POINT('Ctrl Pts',(-5.5,-4.33012701892219,-0.373851870569563));
#348=CARTESIAN_POINT('Ctrl Pts',(-5.5,-4.33012701892219,0.));
#349=CARTESIAN_POINT('Ctrl Pts',(-5.5,-4.33012701892219,0.373851870569563));
#350=CARTESIAN_POINT('Ctrl Pts',(-5.46161817692542,-4.3799812862233,0.746075739510428));
#351=CARTESIAN_POINT('Ctrl Pts',(-5.31319627644788,-4.55888740591992,1.4682804864338));
#352=CARTESIAN_POINT('Ctrl Pts',(-5.2032202205757,-4.68703690659533,1.81849775151952));
#353=CARTESIAN_POINT('Ctrl Pts',(-4.77950321532954,-5.13065352868787,2.81568729268317));
#354=CARTESIAN_POINT('Ctrl Pts',(-4.36711980850455,-5.50080088534134,3.41105478454747));
#355=CARTESIAN_POINT('Ctrl Pts',(-3.42433884760605,-6.13076939848924,4.35383574544598));
#356=CARTESIAN_POINT('Ctrl Pts',(-2.82814996217741,-6.44230837852258,4.77369123409632));
#357=CARTESIAN_POINT('Ctrl Pts',(-1.4801865165199,-6.87828608217354,5.34748640421878));
#358=CARTESIAN_POINT('Ctrl Pts',(-0.726925774374242,-7.,5.5));
#359=CARTESIAN_POINT('Ctrl Pts',(-2.77555756156289E-16,-7.,5.5));
#360=CARTESIAN_POINT('',(-3.05,6.30059520997818,0.));
#361=CARTESIAN_POINT('Ctrl Pts',(-3.05,6.30059520997818,0.));
#362=CARTESIAN_POINT('Ctrl Pts',(-3.05,6.30059520997818,-0.388989994482363));
#363=CARTESIAN_POINT('Ctrl Pts',(-2.97118865987769,6.34044165402595,-0.799638360203848));
#364=CARTESIAN_POINT('Ctrl Pts',(-2.65848521552918,6.47777866147068,-1.54914261225278));
#365=CARTESIAN_POINT('Ctrl Pts',(-2.42479300215349,6.57265587228485,-1.88855836308445));
#366=CARTESIAN_POINT('Ctrl Pts',(-1.88895260643723,6.74618788369087,-2.42439875880071));
#367=CARTESIAN_POINT('Ctrl Pts',(-1.54939274630878,6.8369666356912,-2.65838693916314));
#368=CARTESIAN_POINT('Ctrl Pts',(-0.799306741236691,6.96461337230801,-2.97132093222804));
#369=CARTESIAN_POINT('Ctrl Pts',(-0.388418018304577,7.,-3.05));
#370=CARTESIAN_POINT('Ctrl Pts',(0.388418018304578,7.,-3.05));
#371=CARTESIAN_POINT('Ctrl Pts',(0.799306741236692,6.96461337230801,-2.97132093222804));
#372=CARTESIAN_POINT('Ctrl Pts',(1.54939274630878,6.8369666356912,-2.65838693916314));
#373=CARTESIAN_POINT('Ctrl Pts',(1.88895260643723,6.74618788369087,-2.42439875880071));
#374=CARTESIAN_POINT('Ctrl Pts',(2.42479300215349,6.57265587228485,-1.88855836308445));
#375=CARTESIAN_POINT('Ctrl Pts',(2.65848521552918,6.47777866147068,-1.54914261225278));
#376=CARTESIAN_POINT('Ctrl Pts',(2.97118865987769,6.34044165402595,-0.799638360203849));
#377=CARTESIAN_POINT('Ctrl Pts',(3.05,6.30059520997818,-0.388989994482363));
#378=CARTESIAN_POINT('Ctrl Pts',(3.05,6.30059520997818,0.388989994482363));
#379=CARTESIAN_POINT('Ctrl Pts',(2.97118865987769,6.34044165402595,0.799638360203848));
#380=CARTESIAN_POINT('Ctrl Pts',(2.65848521552918,6.47777866147068,1.54914261225278));
#381=CARTESIAN_POINT('Ctrl Pts',(2.42479300215349,6.57265587228485,1.88855836308445));
#382=CARTESIAN_POINT('Ctrl Pts',(1.88895260643723,6.74618788369087,2.42439875880071));
#383=CARTESIAN_POINT('Ctrl Pts',(1.54939274630878,6.8369666356912,2.65838693916314));
#384=CARTESIAN_POINT('Ctrl Pts',(0.799306741236692,6.96461337230801,2.97132093222804));
#385=CARTESIAN_POINT('Ctrl Pts',(0.388418018304578,7.,3.05));
#386=CARTESIAN_POINT('Ctrl Pts',(-0.388418018304578,7.,3.05));
#387=CARTESIAN_POINT('Ctrl Pts',(-0.799306741236692,6.96461337230801,2.97132093222804));
#388=CARTESIAN_POINT('Ctrl Pts',(-1.54939274630878,6.8369666356912,2.65838693916314));
#389=CARTESIAN_POINT('Ctrl Pts',(-1.88895260643723,6.74618788369087,2.42439875880071));
#390=CARTESIAN_POINT('Ctrl Pts',(-2.42479300215349,6.57265587228485,1.88855836308445));
#391=CARTESIAN_POINT('Ctrl Pts',(-2.65848521552918,6.47777866147068,1.54914261225278));
#392=CARTESIAN_POINT('Ctrl Pts',(-2.97118865987769,6.34044165402595,0.799638360203848));
#393=CARTESIAN_POINT('Ctrl Pts',(-3.05,6.30059520997818,0.388989994482363));
#394=CARTESIAN_POINT('Ctrl Pts',(-3.05,6.30059520997818,-6.93889390390723E-17));
#395=CARTESIAN_POINT('Origin',(0.,1.,0.));
#396=CARTESIAN_POINT('',(3.05,1.,3.73504937915825E-16));
#397=CARTESIAN_POINT('Origin',(0.,1.,0.));
#398=CARTESIAN_POINT('Origin',(0.,-7.,0.));
#399=CARTESIAN_POINT('',(-5.5,1.,6.73533494602307E-16));
#400=CARTESIAN_POINT('Origin',(0.,1.,0.));
#401=CARTESIAN_POINT('Origin',(0.,1.,0.));
#402=CARTESIAN_POINT('Origin',(0.,0.,-6.5));
#403=UNCERTAINTY_MEASURE_WITH_UNIT(LENGTH_MEASURE(0.01),#407,
'DISTANCE_ACCURACY_VALUE',
'Maximum model space distance between geometric entities at asserted c
onnectivities');
#404=UNCERTAINTY_MEASURE_WITH_UNIT(LENGTH_MEASURE(1.E-6),#407,
'DISTANCE_ACCURACY_VALUE',
'Maximum model space distance between geometric entities at asserted c
onnectivities');
#405=(
GEOMETRIC_REPRESENTATION_CONTEXT(3)
GLOBAL_UNCERTAINTY_ASSIGNED_CONTEXT((#403))
GLOBAL_UNIT_ASSIGNED_CONTEXT((#407,#410,#408))
REPRESENTATION_CONTEXT('','3D')
);
#406=(
GEOMETRIC_REPRESENTATION_CONTEXT(3)
GLOBAL_UNCERTAINTY_ASSIGNED_CONTEXT((#404))
GLOBAL_UNIT_ASSIGNED_CONTEXT((#407,#410,#408))
REPRESENTATION_CONTEXT('','3D')
);
#407=(
LENGTH_UNIT()
NAMED_UNIT(*)
SI_UNIT(.MILLI.,.METRE.)
);
#408=(
NAMED_UNIT(*)
SI_UNIT($,.STERADIAN.)
SOLID_ANGLE_UNIT()
);
#409=DIMENSIONAL_EXPONENTS(0.,0.,0.,0.,0.,0.,0.);
#410=(
CONVERSION_BASED_UNIT('degree',#412)
NAMED_UNIT(#409)
PLANE_ANGLE_UNIT()
);
#411=(
NAMED_UNIT(*)
PLANE_ANGLE_UNIT()
SI_UNIT($,.RADIAN.)
);
#412=PLANE_ANGLE_MEASURE_WITH_UNIT(PLANE_ANGLE_MEASURE(0.01745329252),#411);
#413=SHAPE_DEFINITION_REPRESENTATION(#414,#415);
#414=PRODUCT_DEFINITION_SHAPE('',$,#417);
#415=SHAPE_REPRESENTATION('',(#195),#405);
#416=PRODUCT_DEFINITION_CONTEXT('part definition',#421,'design');
#417=PRODUCT_DEFINITION('SV1802V_A','SV1802V_A',#418,#416);
#418=PRODUCT_DEFINITION_FORMATION('',$,#423);
#419=PRODUCT_RELATED_PRODUCT_CATEGORY('SV1802V_A','SV1802V_A',(#423));
#420=APPLICATION_PROTOCOL_DEFINITION('international standard',
'automotive_design',2009,#421);
#421=APPLICATION_CONTEXT(
'Core Data for Automotive Mechanical Design Process');
#422=PRODUCT_CONTEXT('part definition',#421,'mechanical');
#423=PRODUCT('SV1802V_A','SV1802V_A',$,(#422));
#424=PRESENTATION_STYLE_ASSIGNMENT((#425));
#425=SURFACE_STYLE_USAGE(.BOTH.,#426);
#426=SURFACE_SIDE_STYLE($,(#427));
#427=SURFACE_STYLE_FILL_AREA(#428);
#428=FILL_AREA_STYLE($,(#429));
#429=FILL_AREA_STYLE_COLOUR($,#430);
#430=COLOUR_RGB('',0.67843137254902,0.768627450980392,0.811764705882353);
ENDSEC;
END-ISO-10303-21;
