ISO-10303-21;
HEADER;
/* Generated by software containing ST-Developer
 * from STEP Tools, Inc. (www.steptools.com) 
 */

FILE_DESCRIPTION(
/* description */ ('Lasche 40x80 St.'),
/* implementation_level */ '2;1');

FILE_NAME(
/* name */ 'Q:\\ExterneArtikel_Webseite_Palkat\\SZ\\SZ0960S-A.stp',
/* time_stamp */ '2015-11-19T16:09:54+01:00',
/* author */ ('Marina Kaa'),
/* organization */ (''),
/* preprocessor_version */ 'ST-DEVELOPER v15.6',
/* originating_system */ 'Autodesk Inventor 2015',
/* authorisation */ '2');

FILE_SCHEMA (('AUTOMOTIVE_DESIGN { 1 0 10303 214 3 1 1 }'));
ENDSEC;

DATA;
#10=MECHANICAL_DESIGN_GEOMETRIC_PRESENTATION_REPRESENTATION('',(#13),#419);
#11=SHAPE_REPRESENTATION_RELATIONSHIP('SRR','None',#428,#12);
#12=ADVANCED_BREP_SHAPE_REPRESENTATION($,(#14),#418);
#13=STYLED_ITEM('',(#437),#14);
#14=MANIFOLD_SOLID_BREP('Volumenk\X\F6rper1',#245);
#15=CONICAL_SURFACE('',#265,6.55,45.);
#16=CONICAL_SURFACE('',#269,6.55,45.);
#17=FACE_BOUND('',#48,.T.);
#18=FACE_BOUND('',#49,.T.);
#19=FACE_BOUND('',#56,.T.);
#20=FACE_BOUND('',#58,.T.);
#21=FACE_BOUND('',#60,.T.);
#22=FACE_BOUND('',#62,.T.);
#23=FACE_BOUND('',#65,.T.);
#24=FACE_BOUND('',#66,.T.);
#25=PLANE('',#250);
#26=PLANE('',#251);
#27=PLANE('',#259);
#28=PLANE('',#262);
#29=PLANE('',#273);
#30=PLANE('',#274);
#31=FACE_OUTER_BOUND('',#45,.T.);
#32=FACE_OUTER_BOUND('',#46,.T.);
#33=FACE_OUTER_BOUND('',#47,.T.);
#34=FACE_OUTER_BOUND('',#50,.T.);
#35=FACE_OUTER_BOUND('',#51,.T.);
#36=FACE_OUTER_BOUND('',#52,.T.);
#37=FACE_OUTER_BOUND('',#53,.T.);
#38=FACE_OUTER_BOUND('',#54,.T.);
#39=FACE_OUTER_BOUND('',#55,.T.);
#40=FACE_OUTER_BOUND('',#57,.T.);
#41=FACE_OUTER_BOUND('',#59,.T.);
#42=FACE_OUTER_BOUND('',#61,.T.);
#43=FACE_OUTER_BOUND('',#63,.T.);
#44=FACE_OUTER_BOUND('',#64,.T.);
#45=EDGE_LOOP('',(#165,#166,#167,#168));
#46=EDGE_LOOP('',(#169,#170,#171,#172));
#47=EDGE_LOOP('',(#173,#174,#175,#176,#177,#178,#179,#180));
#48=EDGE_LOOP('',(#181));
#49=EDGE_LOOP('',(#182));
#50=EDGE_LOOP('',(#183,#184,#185,#186));
#51=EDGE_LOOP('',(#187,#188,#189,#190));
#52=EDGE_LOOP('',(#191,#192,#193,#194));
#53=EDGE_LOOP('',(#195,#196,#197,#198));
#54=EDGE_LOOP('',(#199,#200,#201,#202));
#55=EDGE_LOOP('',(#203));
#56=EDGE_LOOP('',(#204));
#57=EDGE_LOOP('',(#205));
#58=EDGE_LOOP('',(#206));
#59=EDGE_LOOP('',(#207));
#60=EDGE_LOOP('',(#208));
#61=EDGE_LOOP('',(#209));
#62=EDGE_LOOP('',(#210));
#63=EDGE_LOOP('',(#211,#212,#213,#214));
#64=EDGE_LOOP('',(#215,#216,#217,#218,#219,#220,#221,#222));
#65=EDGE_LOOP('',(#223));
#66=EDGE_LOOP('',(#224));
#67=LINE('',#355,#83);
#68=LINE('',#358,#84);
#69=LINE('',#361,#85);
#70=LINE('',#363,#86);
#71=LINE('',#364,#87);
#72=LINE('',#367,#88);
#73=LINE('',#371,#89);
#74=LINE('',#375,#90);
#75=LINE('',#383,#91);
#76=LINE('',#387,#92);
#77=LINE('',#388,#93);
#78=LINE('',#393,#94);
#79=LINE('',#394,#95);
#80=LINE('',#397,#96);
#81=LINE('',#398,#97);
#82=LINE('',#414,#98);
#83=VECTOR('',#281,5.);
#84=VECTOR('',#284,5.);
#85=VECTOR('',#287,33.);
#86=VECTOR('',#288,5.);
#87=VECTOR('',#289,33.);
#88=VECTOR('',#292,73.);
#89=VECTOR('',#295,33.);
#90=VECTOR('',#298,73.);
#91=VECTOR('',#307,5.);
#92=VECTOR('',#312,5.);
#93=VECTOR('',#313,73.);
#94=VECTOR('',#318,5.);
#95=VECTOR('',#319,5.);
#96=VECTOR('',#322,33.);
#97=VECTOR('',#323,5.);
#98=VECTOR('',#346,73.);
#99=CIRCLE('',#248,3.5);
#100=CIRCLE('',#249,3.5);
#101=CIRCLE('',#252,3.5);
#102=CIRCLE('',#253,3.5);
#103=CIRCLE('',#254,3.5);
#104=CIRCLE('',#255,4.5);
#105=CIRCLE('',#256,4.5);
#106=CIRCLE('',#258,3.5);
#107=CIRCLE('',#261,3.5);
#108=CIRCLE('',#264,3.5);
#109=CIRCLE('',#266,8.6);
#110=CIRCLE('',#267,4.5);
#111=CIRCLE('',#270,8.6);
#112=CIRCLE('',#271,4.5);
#113=VERTEX_POINT('',#351);
#114=VERTEX_POINT('',#352);
#115=VERTEX_POINT('',#354);
#116=VERTEX_POINT('',#356);
#117=VERTEX_POINT('',#360);
#118=VERTEX_POINT('',#362);
#119=VERTEX_POINT('',#366);
#120=VERTEX_POINT('',#368);
#121=VERTEX_POINT('',#370);
#122=VERTEX_POINT('',#372);
#123=VERTEX_POINT('',#374);
#124=VERTEX_POINT('',#377);
#125=VERTEX_POINT('',#379);
#126=VERTEX_POINT('',#382);
#127=VERTEX_POINT('',#386);
#128=VERTEX_POINT('',#390);
#129=VERTEX_POINT('',#391);
#130=VERTEX_POINT('',#396);
#131=VERTEX_POINT('',#402);
#132=VERTEX_POINT('',#404);
#133=VERTEX_POINT('',#408);
#134=VERTEX_POINT('',#410);
#135=EDGE_CURVE('',#113,#114,#99,.T.);
#136=EDGE_CURVE('',#114,#115,#67,.T.);
#137=EDGE_CURVE('',#115,#116,#100,.T.);
#138=EDGE_CURVE('',#116,#113,#68,.T.);
#139=EDGE_CURVE('',#114,#117,#69,.T.);
#140=EDGE_CURVE('',#118,#117,#70,.T.);
#141=EDGE_CURVE('',#118,#115,#71,.T.);
#142=EDGE_CURVE('',#119,#113,#72,.T.);
#143=EDGE_CURVE('',#120,#119,#101,.T.);
#144=EDGE_CURVE('',#121,#120,#73,.T.);
#145=EDGE_CURVE('',#122,#121,#102,.T.);
#146=EDGE_CURVE('',#123,#122,#74,.T.);
#147=EDGE_CURVE('',#117,#123,#103,.T.);
#148=EDGE_CURVE('',#124,#124,#104,.T.);
#149=EDGE_CURVE('',#125,#125,#105,.T.);
#150=EDGE_CURVE('',#123,#126,#75,.T.);
#151=EDGE_CURVE('',#126,#118,#106,.T.);
#152=EDGE_CURVE('',#127,#122,#76,.T.);
#153=EDGE_CURVE('',#127,#126,#77,.T.);
#154=EDGE_CURVE('',#128,#129,#107,.T.);
#155=EDGE_CURVE('',#129,#120,#78,.T.);
#156=EDGE_CURVE('',#119,#128,#79,.T.);
#157=EDGE_CURVE('',#129,#130,#80,.T.);
#158=EDGE_CURVE('',#121,#130,#81,.T.);
#159=EDGE_CURVE('',#130,#127,#108,.T.);
#160=EDGE_CURVE('',#131,#131,#109,.T.);
#161=EDGE_CURVE('',#132,#132,#110,.T.);
#162=EDGE_CURVE('',#133,#133,#111,.T.);
#163=EDGE_CURVE('',#134,#134,#112,.T.);
#164=EDGE_CURVE('',#116,#128,#82,.T.);
#165=ORIENTED_EDGE('',*,*,#135,.T.);
#166=ORIENTED_EDGE('',*,*,#136,.T.);
#167=ORIENTED_EDGE('',*,*,#137,.T.);
#168=ORIENTED_EDGE('',*,*,#138,.T.);
#169=ORIENTED_EDGE('',*,*,#136,.F.);
#170=ORIENTED_EDGE('',*,*,#139,.T.);
#171=ORIENTED_EDGE('',*,*,#140,.F.);
#172=ORIENTED_EDGE('',*,*,#141,.T.);
#173=ORIENTED_EDGE('',*,*,#135,.F.);
#174=ORIENTED_EDGE('',*,*,#142,.F.);
#175=ORIENTED_EDGE('',*,*,#143,.F.);
#176=ORIENTED_EDGE('',*,*,#144,.F.);
#177=ORIENTED_EDGE('',*,*,#145,.F.);
#178=ORIENTED_EDGE('',*,*,#146,.F.);
#179=ORIENTED_EDGE('',*,*,#147,.F.);
#180=ORIENTED_EDGE('',*,*,#139,.F.);
#181=ORIENTED_EDGE('',*,*,#148,.T.);
#182=ORIENTED_EDGE('',*,*,#149,.T.);
#183=ORIENTED_EDGE('',*,*,#147,.T.);
#184=ORIENTED_EDGE('',*,*,#150,.T.);
#185=ORIENTED_EDGE('',*,*,#151,.T.);
#186=ORIENTED_EDGE('',*,*,#140,.T.);
#187=ORIENTED_EDGE('',*,*,#150,.F.);
#188=ORIENTED_EDGE('',*,*,#146,.T.);
#189=ORIENTED_EDGE('',*,*,#152,.F.);
#190=ORIENTED_EDGE('',*,*,#153,.T.);
#191=ORIENTED_EDGE('',*,*,#154,.T.);
#192=ORIENTED_EDGE('',*,*,#155,.T.);
#193=ORIENTED_EDGE('',*,*,#143,.T.);
#194=ORIENTED_EDGE('',*,*,#156,.T.);
#195=ORIENTED_EDGE('',*,*,#155,.F.);
#196=ORIENTED_EDGE('',*,*,#157,.T.);
#197=ORIENTED_EDGE('',*,*,#158,.F.);
#198=ORIENTED_EDGE('',*,*,#144,.T.);
#199=ORIENTED_EDGE('',*,*,#145,.T.);
#200=ORIENTED_EDGE('',*,*,#158,.T.);
#201=ORIENTED_EDGE('',*,*,#159,.T.);
#202=ORIENTED_EDGE('',*,*,#152,.T.);
#203=ORIENTED_EDGE('',*,*,#160,.F.);
#204=ORIENTED_EDGE('',*,*,#161,.F.);
#205=ORIENTED_EDGE('',*,*,#148,.F.);
#206=ORIENTED_EDGE('',*,*,#161,.T.);
#207=ORIENTED_EDGE('',*,*,#162,.F.);
#208=ORIENTED_EDGE('',*,*,#163,.F.);
#209=ORIENTED_EDGE('',*,*,#149,.F.);
#210=ORIENTED_EDGE('',*,*,#163,.T.);
#211=ORIENTED_EDGE('',*,*,#138,.F.);
#212=ORIENTED_EDGE('',*,*,#164,.T.);
#213=ORIENTED_EDGE('',*,*,#156,.F.);
#214=ORIENTED_EDGE('',*,*,#142,.T.);
#215=ORIENTED_EDGE('',*,*,#137,.F.);
#216=ORIENTED_EDGE('',*,*,#141,.F.);
#217=ORIENTED_EDGE('',*,*,#151,.F.);
#218=ORIENTED_EDGE('',*,*,#153,.F.);
#219=ORIENTED_EDGE('',*,*,#159,.F.);
#220=ORIENTED_EDGE('',*,*,#157,.F.);
#221=ORIENTED_EDGE('',*,*,#154,.F.);
#222=ORIENTED_EDGE('',*,*,#164,.F.);
#223=ORIENTED_EDGE('',*,*,#160,.T.);
#224=ORIENTED_EDGE('',*,*,#162,.T.);
#225=CYLINDRICAL_SURFACE('',#247,3.5);
#226=CYLINDRICAL_SURFACE('',#257,3.5);
#227=CYLINDRICAL_SURFACE('',#260,3.5);
#228=CYLINDRICAL_SURFACE('',#263,3.5);
#229=CYLINDRICAL_SURFACE('',#268,4.5);
#230=CYLINDRICAL_SURFACE('',#272,4.5);
#231=ADVANCED_FACE('',(#31),#225,.T.);
#232=ADVANCED_FACE('',(#32),#25,.T.);
#233=ADVANCED_FACE('',(#33,#17,#18),#26,.F.);
#234=ADVANCED_FACE('',(#34),#226,.T.);
#235=ADVANCED_FACE('',(#35),#27,.T.);
#236=ADVANCED_FACE('',(#36),#227,.T.);
#237=ADVANCED_FACE('',(#37),#28,.T.);
#238=ADVANCED_FACE('',(#38),#228,.T.);
#239=ADVANCED_FACE('',(#39,#19),#15,.F.);
#240=ADVANCED_FACE('',(#40,#20),#229,.F.);
#241=ADVANCED_FACE('',(#41,#21),#16,.F.);
#242=ADVANCED_FACE('',(#42,#22),#230,.F.);
#243=ADVANCED_FACE('',(#43),#29,.T.);
#244=ADVANCED_FACE('',(#44,#23,#24),#30,.T.);
#245=CLOSED_SHELL('',(#231,#232,#233,#234,#235,#236,#237,#238,#239,#240,
#241,#242,#243,#244));
#246=AXIS2_PLACEMENT_3D('placement',#349,#275,#276);
#247=AXIS2_PLACEMENT_3D('',#350,#277,#278);
#248=AXIS2_PLACEMENT_3D('',#353,#279,#280);
#249=AXIS2_PLACEMENT_3D('',#357,#282,#283);
#250=AXIS2_PLACEMENT_3D('',#359,#285,#286);
#251=AXIS2_PLACEMENT_3D('',#365,#290,#291);
#252=AXIS2_PLACEMENT_3D('',#369,#293,#294);
#253=AXIS2_PLACEMENT_3D('',#373,#296,#297);
#254=AXIS2_PLACEMENT_3D('',#376,#299,#300);
#255=AXIS2_PLACEMENT_3D('',#378,#301,#302);
#256=AXIS2_PLACEMENT_3D('',#380,#303,#304);
#257=AXIS2_PLACEMENT_3D('',#381,#305,#306);
#258=AXIS2_PLACEMENT_3D('',#384,#308,#309);
#259=AXIS2_PLACEMENT_3D('',#385,#310,#311);
#260=AXIS2_PLACEMENT_3D('',#389,#314,#315);
#261=AXIS2_PLACEMENT_3D('',#392,#316,#317);
#262=AXIS2_PLACEMENT_3D('',#395,#320,#321);
#263=AXIS2_PLACEMENT_3D('',#399,#324,#325);
#264=AXIS2_PLACEMENT_3D('',#400,#326,#327);
#265=AXIS2_PLACEMENT_3D('',#401,#328,#329);
#266=AXIS2_PLACEMENT_3D('',#403,#330,#331);
#267=AXIS2_PLACEMENT_3D('',#405,#332,#333);
#268=AXIS2_PLACEMENT_3D('',#406,#334,#335);
#269=AXIS2_PLACEMENT_3D('',#407,#336,#337);
#270=AXIS2_PLACEMENT_3D('',#409,#338,#339);
#271=AXIS2_PLACEMENT_3D('',#411,#340,#341);
#272=AXIS2_PLACEMENT_3D('',#412,#342,#343);
#273=AXIS2_PLACEMENT_3D('',#413,#344,#345);
#274=AXIS2_PLACEMENT_3D('',#415,#347,#348);
#275=DIRECTION('axis',(0.,0.,1.));
#276=DIRECTION('refdir',(1.,0.,0.));
#277=DIRECTION('center_axis',(0.,0.,-1.));
#278=DIRECTION('ref_axis',(0.707106781186547,0.707106781186548,0.));
#279=DIRECTION('center_axis',(0.,0.,1.));
#280=DIRECTION('ref_axis',(0.707106781186547,0.707106781186548,0.));
#281=DIRECTION('',(0.,0.,1.));
#282=DIRECTION('center_axis',(0.,0.,-1.));
#283=DIRECTION('ref_axis',(0.707106781186547,0.707106781186548,0.));
#284=DIRECTION('',(0.,0.,-1.));
#285=DIRECTION('center_axis',(2.22044604925031E-16,1.,0.));
#286=DIRECTION('ref_axis',(0.,0.,1.));
#287=DIRECTION('',(-1.,2.22044604925031E-16,0.));
#288=DIRECTION('',(0.,0.,-1.));
#289=DIRECTION('',(1.,-2.22044604925031E-16,0.));
#290=DIRECTION('center_axis',(0.,0.,1.));
#291=DIRECTION('ref_axis',(1.,0.,0.));
#292=DIRECTION('',(0.,1.,0.));
#293=DIRECTION('center_axis',(0.,0.,1.));
#294=DIRECTION('ref_axis',(0.707106781186548,-0.707106781186547,0.));
#295=DIRECTION('',(1.,2.22044604925031E-16,0.));
#296=DIRECTION('center_axis',(0.,0.,1.));
#297=DIRECTION('ref_axis',(-0.707106781186547,-0.707106781186548,0.));
#298=DIRECTION('',(0.,-1.,0.));
#299=DIRECTION('center_axis',(0.,0.,1.));
#300=DIRECTION('ref_axis',(-0.707106781186548,0.707106781186547,0.));
#301=DIRECTION('center_axis',(0.,0.,1.));
#302=DIRECTION('ref_axis',(1.,0.,0.));
#303=DIRECTION('center_axis',(0.,0.,1.));
#304=DIRECTION('ref_axis',(1.,0.,0.));
#305=DIRECTION('center_axis',(0.,0.,-1.));
#306=DIRECTION('ref_axis',(-0.707106781186548,0.707106781186547,0.));
#307=DIRECTION('',(0.,0.,1.));
#308=DIRECTION('center_axis',(0.,0.,-1.));
#309=DIRECTION('ref_axis',(-0.707106781186548,0.707106781186547,0.));
#310=DIRECTION('center_axis',(-1.,0.,0.));
#311=DIRECTION('ref_axis',(0.,0.,1.));
#312=DIRECTION('',(0.,0.,-1.));
#313=DIRECTION('',(0.,1.,0.));
#314=DIRECTION('center_axis',(0.,0.,1.));
#315=DIRECTION('ref_axis',(0.707106781186548,-0.707106781186547,0.));
#316=DIRECTION('center_axis',(0.,0.,-1.));
#317=DIRECTION('ref_axis',(0.707106781186548,-0.707106781186547,0.));
#318=DIRECTION('',(0.,0.,-1.));
#319=DIRECTION('',(0.,0.,1.));
#320=DIRECTION('center_axis',(2.22044604925031E-16,-1.,0.));
#321=DIRECTION('ref_axis',(0.,0.,-1.));
#322=DIRECTION('',(-1.,-2.22044604925031E-16,0.));
#323=DIRECTION('',(0.,0.,1.));
#324=DIRECTION('center_axis',(0.,0.,-1.));
#325=DIRECTION('ref_axis',(-0.707106781186547,-0.707106781186548,0.));
#326=DIRECTION('center_axis',(0.,0.,-1.));
#327=DIRECTION('ref_axis',(-0.707106781186547,-0.707106781186548,0.));
#328=DIRECTION('center_axis',(0.,0.,1.));
#329=DIRECTION('ref_axis',(1.,0.,0.));
#330=DIRECTION('center_axis',(0.,0.,-1.));
#331=DIRECTION('ref_axis',(1.,0.,0.));
#332=DIRECTION('center_axis',(0.,0.,1.));
#333=DIRECTION('ref_axis',(1.,0.,0.));
#334=DIRECTION('center_axis',(0.,0.,1.));
#335=DIRECTION('ref_axis',(1.,0.,0.));
#336=DIRECTION('center_axis',(0.,0.,1.));
#337=DIRECTION('ref_axis',(1.,0.,0.));
#338=DIRECTION('center_axis',(0.,0.,-1.));
#339=DIRECTION('ref_axis',(1.,0.,0.));
#340=DIRECTION('center_axis',(0.,0.,1.));
#341=DIRECTION('ref_axis',(1.,0.,0.));
#342=DIRECTION('center_axis',(0.,0.,1.));
#343=DIRECTION('ref_axis',(1.,0.,0.));
#344=DIRECTION('center_axis',(1.,0.,0.));
#345=DIRECTION('ref_axis',(0.,0.,-1.));
#346=DIRECTION('',(0.,-1.,0.));
#347=DIRECTION('center_axis',(0.,0.,1.));
#348=DIRECTION('ref_axis',(1.,0.,0.));
#349=CARTESIAN_POINT('',(0.,0.,0.));
#350=CARTESIAN_POINT('Origin',(16.5,36.5,0.));
#351=CARTESIAN_POINT('',(20.,36.5,-2.5));
#352=CARTESIAN_POINT('',(16.5,40.,-2.5));
#353=CARTESIAN_POINT('Origin',(16.5,36.5,-2.5));
#354=CARTESIAN_POINT('',(16.5,40.,2.5));
#355=CARTESIAN_POINT('',(16.5,40.,0.));
#356=CARTESIAN_POINT('',(20.,36.5,2.5));
#357=CARTESIAN_POINT('Origin',(16.5,36.5,2.5));
#358=CARTESIAN_POINT('',(20.,36.5,0.));
#359=CARTESIAN_POINT('Origin',(-20.,40.,0.));
#360=CARTESIAN_POINT('',(-16.5,40.,-2.5));
#361=CARTESIAN_POINT('',(-20.,40.,-2.5));
#362=CARTESIAN_POINT('',(-16.5,40.,2.5));
#363=CARTESIAN_POINT('',(-16.5,40.,0.));
#364=CARTESIAN_POINT('',(-20.,40.,2.5));
#365=CARTESIAN_POINT('Origin',(2.22044604925031E-15,5.71933073291747E-16,
-2.5));
#366=CARTESIAN_POINT('',(20.,-36.5,-2.5));
#367=CARTESIAN_POINT('',(20.,40.,-2.5));
#368=CARTESIAN_POINT('',(16.5,-40.,-2.5));
#369=CARTESIAN_POINT('Origin',(16.5,-36.5,-2.5));
#370=CARTESIAN_POINT('',(-16.5,-40.,-2.5));
#371=CARTESIAN_POINT('',(20.,-40.,-2.5));
#372=CARTESIAN_POINT('',(-20.,-36.5,-2.5));
#373=CARTESIAN_POINT('Origin',(-16.5,-36.5,-2.5));
#374=CARTESIAN_POINT('',(-20.,36.5,-2.5));
#375=CARTESIAN_POINT('',(-20.,-40.,-2.5));
#376=CARTESIAN_POINT('Origin',(-16.5,36.5,-2.5));
#377=CARTESIAN_POINT('',(-4.5,-20.,-2.5));
#378=CARTESIAN_POINT('Origin',(0.,-20.,-2.5));
#379=CARTESIAN_POINT('',(-4.5,20.,-2.5));
#380=CARTESIAN_POINT('Origin',(0.,20.,-2.5));
#381=CARTESIAN_POINT('Origin',(-16.5,36.5,0.));
#382=CARTESIAN_POINT('',(-20.,36.5,2.5));
#383=CARTESIAN_POINT('',(-20.,36.5,0.));
#384=CARTESIAN_POINT('Origin',(-16.5,36.5,2.5));
#385=CARTESIAN_POINT('Origin',(-20.,-40.,0.));
#386=CARTESIAN_POINT('',(-20.,-36.5,2.5));
#387=CARTESIAN_POINT('',(-20.,-36.5,0.));
#388=CARTESIAN_POINT('',(-20.,-40.,2.5));
#389=CARTESIAN_POINT('Origin',(16.5,-36.5,0.));
#390=CARTESIAN_POINT('',(20.,-36.5,2.5));
#391=CARTESIAN_POINT('',(16.5,-40.,2.5));
#392=CARTESIAN_POINT('Origin',(16.5,-36.5,2.5));
#393=CARTESIAN_POINT('',(16.5,-40.,0.));
#394=CARTESIAN_POINT('',(20.,-36.5,0.));
#395=CARTESIAN_POINT('Origin',(20.,-40.,0.));
#396=CARTESIAN_POINT('',(-16.5,-40.,2.5));
#397=CARTESIAN_POINT('',(20.,-40.,2.5));
#398=CARTESIAN_POINT('',(-16.5,-40.,0.));
#399=CARTESIAN_POINT('Origin',(-16.5,-36.5,0.));
#400=CARTESIAN_POINT('Origin',(-16.5,-36.5,2.5));
#401=CARTESIAN_POINT('Origin',(0.,-20.,0.45));
#402=CARTESIAN_POINT('',(8.6,-20.,2.5));
#403=CARTESIAN_POINT('Origin',(0.,-20.,2.5));
#404=CARTESIAN_POINT('',(4.5,-20.,-1.6));
#405=CARTESIAN_POINT('Origin',(0.,-20.,-1.6));
#406=CARTESIAN_POINT('Origin',(0.,-20.,-87.0823643358446));
#407=CARTESIAN_POINT('Origin',(0.,20.,0.45));
#408=CARTESIAN_POINT('',(8.6,20.,2.5));
#409=CARTESIAN_POINT('Origin',(0.,20.,2.5));
#410=CARTESIAN_POINT('',(4.5,20.,-1.6));
#411=CARTESIAN_POINT('Origin',(0.,20.,-1.6));
#412=CARTESIAN_POINT('Origin',(0.,20.,-87.0823643358446));
#413=CARTESIAN_POINT('Origin',(20.,40.,0.));
#414=CARTESIAN_POINT('',(20.,40.,2.5));
#415=CARTESIAN_POINT('Origin',(2.22044604925031E-15,8.07434927000114E-16,
2.5));
#416=UNCERTAINTY_MEASURE_WITH_UNIT(LENGTH_MEASURE(0.01),#420,
'DISTANCE_ACCURACY_VALUE',
'Maximum model space distance between geometric entities at asserted c
onnectivities');
#417=UNCERTAINTY_MEASURE_WITH_UNIT(LENGTH_MEASURE(1.E-6),#420,
'DISTANCE_ACCURACY_VALUE',
'Maximum model space distance between geometric entities at asserted c
onnectivities');
#418=(
GEOMETRIC_REPRESENTATION_CONTEXT(3)
GLOBAL_UNCERTAINTY_ASSIGNED_CONTEXT((#416))
GLOBAL_UNIT_ASSIGNED_CONTEXT((#420,#423,#421))
REPRESENTATION_CONTEXT('','3D')
);
#419=(
GEOMETRIC_REPRESENTATION_CONTEXT(3)
GLOBAL_UNCERTAINTY_ASSIGNED_CONTEXT((#417))
GLOBAL_UNIT_ASSIGNED_CONTEXT((#420,#423,#421))
REPRESENTATION_CONTEXT('','3D')
);
#420=(
LENGTH_UNIT()
NAMED_UNIT(*)
SI_UNIT(.MILLI.,.METRE.)
);
#421=(
NAMED_UNIT(*)
SI_UNIT($,.STERADIAN.)
SOLID_ANGLE_UNIT()
);
#422=DIMENSIONAL_EXPONENTS(0.,0.,0.,0.,0.,0.,0.);
#423=(
CONVERSION_BASED_UNIT('degree',#425)
NAMED_UNIT(#422)
PLANE_ANGLE_UNIT()
);
#424=(
NAMED_UNIT(*)
PLANE_ANGLE_UNIT()
SI_UNIT($,.RADIAN.)
);
#425=PLANE_ANGLE_MEASURE_WITH_UNIT(PLANE_ANGLE_MEASURE(0.01745329252),#424);
#426=SHAPE_DEFINITION_REPRESENTATION(#427,#428);
#427=PRODUCT_DEFINITION_SHAPE('',$,#430);
#428=SHAPE_REPRESENTATION('',(#246),#418);
#429=PRODUCT_DEFINITION_CONTEXT('part definition',#434,'design');
#430=PRODUCT_DEFINITION('SZ0960S-A','SZ0960S-A',#431,#429);
#431=PRODUCT_DEFINITION_FORMATION('',$,#436);
#432=PRODUCT_RELATED_PRODUCT_CATEGORY('SZ0960S-A','SZ0960S-A',(#436));
#433=APPLICATION_PROTOCOL_DEFINITION('international standard',
'automotive_design',2009,#434);
#434=APPLICATION_CONTEXT(
'Core Data for Automotive Mechanical Design Process');
#435=PRODUCT_CONTEXT('part definition',#434,'mechanical');
#436=PRODUCT('SZ0960S-A','SZ0960S-A',$,(#435));
#437=PRESENTATION_STYLE_ASSIGNMENT((#438));
#438=SURFACE_STYLE_USAGE(.BOTH.,#439);
#439=SURFACE_SIDE_STYLE($,(#440));
#440=SURFACE_STYLE_FILL_AREA(#441);
#441=FILL_AREA_STYLE($,(#442));
#442=FILL_AREA_STYLE_COLOUR($,#443);
#443=COLOUR_RGB('',0.32156862745098,0.32156862745098,0.32156862745098);
ENDSEC;
END-ISO-10303-21;
