ISO-10303-21;
HEADER;
/****************************************************************
 * Generated by software with PDE/Lib inside                    *
 * PDElib Version v51a, created Tue 12/06/2005                  *
 * International Technegroup Inc. (www.iti-oh.com)              *
 ****************************************************************/
FILE_DESCRIPTION((''),'2;1');
FILE_NAME('U:\\Paletti Norm\\Paletti Artikel f. Palkat\\STEP\\SV4142V.ipt.step','2007-09-10T15:15:20',(''),(''),'Autodesk Inventor 11','Autodesk Inventor 11','');
FILE_SCHEMA(('AUTOMOTIVE_DESIGN { 1 0 10303 214 1 1 1 1 }'));
ENDSEC;
DATA;
#5=APPLICATION_CONTEXT('automotive design');
#6=APPLICATION_PROTOCOL_DEFINITION('International Standard','automotive_design',2001,#5);
#7=PRODUCT_CONTEXT('',#5,'mechanical');
#8=PRODUCT('SV4142V','SV4142V',$,(#7));
#9=PRODUCT_RELATED_PRODUCT_CATEGORY('part',$,(#8));
#10=PRODUCT_DEFINITION_FORMATION('',$,#8);
#11=PRODUCT_DEFINITION_CONTEXT('part definition',#5,'design');
#12=PRODUCT_DEFINITION('',$,#10,#11);
#18=(NAMED_UNIT(*)PLANE_ANGLE_UNIT()SI_UNIT($,.RADIAN.));
#19=DIMENSIONAL_EXPONENTS(0.0,0.0,0.0,0.0,0.0,0.0,0.0);
#20=PLANE_ANGLE_MEASURE_WITH_UNIT(PLANE_ANGLE_MEASURE(0.017453292500000),#18);
#24=(CONVERSION_BASED_UNIT('DEGREE',#20)NAMED_UNIT(#19)PLANE_ANGLE_UNIT());
#28=(NAMED_UNIT(*)SI_UNIT($,.STERADIAN.)SOLID_ANGLE_UNIT());
#32=(LENGTH_UNIT()NAMED_UNIT(*)SI_UNIT(.MILLI.,.METRE.));
#34=UNCERTAINTY_MEASURE_WITH_UNIT(LENGTH_MEASURE(0.010000000000000),#32,'DISTANCE_ACCURACY_VALUE','');
#36=(GEOMETRIC_REPRESENTATION_CONTEXT(3)GLOBAL_UNCERTAINTY_ASSIGNED_CONTEXT((#34))GLOBAL_UNIT_ASSIGNED_CONTEXT((#24,#28,#32))REPRESENTATION_CONTEXT('None','None'));
#37=AXIS2_PLACEMENT_3D('',#38,#39,#40);
#38=CARTESIAN_POINT('',(0.0,0.0,0.0));
#39=DIRECTION('',(0.0,0.0,1.0));
#40=DIRECTION('',(1.0,0.0,0.0));
#41=SHAPE_REPRESENTATION('',(#37),#36);
#42=PRODUCT_DEFINITION_SHAPE('','',#12);
#43=SHAPE_DEFINITION_REPRESENTATION(#42,#41);
#44=CARTESIAN_POINT('',(12.500000000000007,25.0,5.299999999999997));
#45=CARTESIAN_POINT('',(12.500000000000007,25.0,-5.299999999999997));
#46=CARTESIAN_POINT('',(12.500000000000009,12.500000000000005,5.299999999999997));
#47=CARTESIAN_POINT('',(12.500000000000009,12.500000000000005,-5.299999999999997));
#48=CARTESIAN_POINT('',(25.000000000000007,12.500000000000000,5.299999999999997));
#49=CARTESIAN_POINT('',(25.000000000000007,12.500000000000000,-5.299999999999997));
#50=CARTESIAN_POINT('',(37.500000000000000,12.500000000000005,5.299999999999997));
#51=CARTESIAN_POINT('',(37.500000000000000,12.500000000000005,-5.299999999999997));
#52=CARTESIAN_POINT('',(37.500000000000007,25.0,5.299999999999997));
#53=CARTESIAN_POINT('',(37.500000000000007,25.0,-5.299999999999997));
#54=CARTESIAN_POINT('',(37.500000000000000,37.500000000000000,5.299999999999997));
#55=CARTESIAN_POINT('',(37.500000000000000,37.500000000000000,-5.299999999999997));
#56=CARTESIAN_POINT('',(25.000000000000007,37.500000000000000,5.299999999999997));
#57=CARTESIAN_POINT('',(25.000000000000007,37.500000000000000,-5.299999999999997));
#58=CARTESIAN_POINT('',(12.500000000000009,37.500000000000000,5.299999999999997));
#59=CARTESIAN_POINT('',(12.500000000000009,37.500000000000000,-5.299999999999997));
#60=CARTESIAN_POINT('',(12.500000000000007,25.0,5.299999999999997));
#61=CARTESIAN_POINT('',(12.500000000000007,25.0,-5.299999999999997));
#69=(BOUNDED_SURFACE()B_SPLINE_SURFACE(1,2,((#44,#46,#48,#50,#52,#54,#56,#58,#60),(#45,#47,#49,#51,#53,#55,#57,#59,#61)),.UNSPECIFIED.,.F.,.T.,.U.)B_SPLINE_SURFACE_WITH_KNOTS((2,2),(3,2,2,2,3),(-9.541273709521178,-8.693273709521179),(0.0,19.634954084936208,39.269908169872416,58.904862254808620,78.539816339744831),.UNSPECIFIED.)GEOMETRIC_REPRESENTATION_ITEM()RATIONAL_B_SPLINE_SURFACE(((1.0,0.707106781186548,1.0,0.707106781186548,1.0,0.707106781186548,1.0,0.707106781186548,1.0),(1.0,0.707106781186548,1.0,0.707106781186548,1.0,0.707106781186548,1.0,0.707106781186548,1.0)))REPRESENTATION_ITEM('')SURFACE());
#70=CARTESIAN_POINT('',(12.500000000000009,25.0,-5.299999999999994));
#71=VERTEX_POINT('',#70);
#72=CARTESIAN_POINT('',(25.000000000000007,25.0,-5.299999999999994));
#73=DIRECTION('',(0.0,0.0,1.0));
#74=DIRECTION('',(1.0,0.0,0.0));
#75=AXIS2_PLACEMENT_3D('',#72,#73,#74);
#76=CIRCLE('',#75,12.500000000000000);
#77=EDGE_CURVE('',#71,#71,#76,.T.);
#78=ORIENTED_EDGE('',*,*,#77,.F.);
#79=EDGE_LOOP('',(#78));
#80=FACE_OUTER_BOUND('',#79,.T.);
#81=CARTESIAN_POINT('',(37.500000000000007,25.0,5.300000000000001));
#82=VERTEX_POINT('',#81);
#83=CARTESIAN_POINT('',(25.000000000000007,25.0,5.299999999999994));
#84=DIRECTION('',(0.0,0.0,-1.0));
#85=DIRECTION('',(1.0,0.0,0.0));
#86=AXIS2_PLACEMENT_3D('',#83,#84,#85);
#87=CIRCLE('',#86,12.500000000000000);
#88=EDGE_CURVE('',#82,#82,#87,.T.);
#89=ORIENTED_EDGE('',*,*,#88,.F.);
#90=EDGE_LOOP('',(#89));
#91=FACE_BOUND('',#90,.T.);
#92=ADVANCED_FACE('',(#80,#91),#69,.F.);
#93=CARTESIAN_POINT('',(-37.500000000000007,-24.999999999999993,5.299999999999997));
#94=CARTESIAN_POINT('',(-37.500000000000007,-24.999999999999993,-5.299999999999997));
#95=CARTESIAN_POINT('',(-37.500000000000000,-37.499999999999986,5.299999999999997));
#96=CARTESIAN_POINT('',(-37.500000000000000,-37.499999999999986,-5.299999999999997));
#97=CARTESIAN_POINT('',(-25.000000000000007,-37.499999999999993,5.299999999999997));
#98=CARTESIAN_POINT('',(-25.000000000000007,-37.499999999999993,-5.299999999999997));
#99=CARTESIAN_POINT('',(-12.500000000000009,-37.499999999999986,5.299999999999997));
#100=CARTESIAN_POINT('',(-12.500000000000009,-37.499999999999986,-5.299999999999997));
#101=CARTESIAN_POINT('',(-12.500000000000007,-24.999999999999993,5.299999999999997));
#102=CARTESIAN_POINT('',(-12.500000000000007,-24.999999999999993,-5.299999999999997));
#103=CARTESIAN_POINT('',(-12.500000000000009,-12.499999999999996,5.299999999999997));
#104=CARTESIAN_POINT('',(-12.500000000000009,-12.499999999999996,-5.299999999999997));
#105=CARTESIAN_POINT('',(-25.000000000000007,-12.499999999999993,5.299999999999997));
#106=CARTESIAN_POINT('',(-25.000000000000007,-12.499999999999993,-5.299999999999997));
#107=CARTESIAN_POINT('',(-37.500000000000000,-12.499999999999996,5.299999999999997));
#108=CARTESIAN_POINT('',(-37.500000000000000,-12.499999999999996,-5.299999999999997));
#109=CARTESIAN_POINT('',(-37.500000000000007,-24.999999999999993,5.299999999999997));
#110=CARTESIAN_POINT('',(-37.500000000000007,-24.999999999999993,-5.299999999999997));
#118=(BOUNDED_SURFACE()B_SPLINE_SURFACE(1,2,((#93,#95,#97,#99,#101,#103,#105,#107,#109),(#94,#96,#98,#100,#102,#104,#106,#108,#110)),.UNSPECIFIED.,.F.,.T.,.U.)B_SPLINE_SURFACE_WITH_KNOTS((2,2),(3,2,2,2,3),(-9.541273709521178,-8.693273709521179),(0.0,19.634954084936208,39.269908169872416,58.904862254808620,78.539816339744831),.UNSPECIFIED.)GEOMETRIC_REPRESENTATION_ITEM()RATIONAL_B_SPLINE_SURFACE(((1.0,0.707106781186548,1.0,0.707106781186548,1.0,0.707106781186548,1.0,0.707106781186548,1.0),(1.0,0.707106781186548,1.0,0.707106781186548,1.0,0.707106781186548,1.0,0.707106781186548,1.0)))REPRESENTATION_ITEM('')SURFACE());
#119=CARTESIAN_POINT('',(-37.500000000000007,-24.999999999999993,-5.299999999999994));
#120=VERTEX_POINT('',#119);
#121=CARTESIAN_POINT('',(-25.000000000000007,-24.999999999999993,-5.299999999999994));
#122=DIRECTION('',(0.0,0.0,1.0));
#123=DIRECTION('',(1.0,0.0,0.0));
#124=AXIS2_PLACEMENT_3D('',#121,#122,#123);
#125=CIRCLE('',#124,12.500000000000000);
#126=EDGE_CURVE('',#120,#120,#125,.T.);
#127=ORIENTED_EDGE('',*,*,#126,.F.);
#128=EDGE_LOOP('',(#127));
#129=FACE_OUTER_BOUND('',#128,.T.);
#130=CARTESIAN_POINT('',(-12.500000000000009,-24.999999999999993,5.300000000000001));
#131=VERTEX_POINT('',#130);
#132=CARTESIAN_POINT('',(-25.000000000000007,-24.999999999999993,5.299999999999994));
#133=DIRECTION('',(0.0,0.0,-1.0));
#134=DIRECTION('',(1.0,0.0,0.0));
#135=AXIS2_PLACEMENT_3D('',#132,#133,#134);
#136=CIRCLE('',#135,12.500000000000000);
#137=EDGE_CURVE('',#131,#131,#136,.T.);
#138=ORIENTED_EDGE('',*,*,#137,.F.);
#139=EDGE_LOOP('',(#138));
#140=FACE_BOUND('',#139,.T.);
#141=ADVANCED_FACE('',(#129,#140),#118,.F.);
#142=CARTESIAN_POINT('',(-37.500000000000007,25.0,5.299999999999997));
#143=CARTESIAN_POINT('',(-37.500000000000007,25.0,-5.299999999999997));
#144=CARTESIAN_POINT('',(-37.500000000000000,12.500000000000005,5.299999999999997));
#145=CARTESIAN_POINT('',(-37.500000000000000,12.500000000000005,-5.299999999999997));
#146=CARTESIAN_POINT('',(-25.000000000000007,12.500000000000000,5.299999999999997));
#147=CARTESIAN_POINT('',(-25.000000000000007,12.500000000000000,-5.299999999999997));
#148=CARTESIAN_POINT('',(-12.500000000000009,12.500000000000005,5.299999999999997));
#149=CARTESIAN_POINT('',(-12.500000000000009,12.500000000000005,-5.299999999999997));
#150=CARTESIAN_POINT('',(-12.500000000000007,25.0,5.299999999999997));
#151=CARTESIAN_POINT('',(-12.500000000000007,25.0,-5.299999999999997));
#152=CARTESIAN_POINT('',(-12.500000000000009,37.500000000000000,5.299999999999997));
#153=CARTESIAN_POINT('',(-12.500000000000009,37.500000000000000,-5.299999999999997));
#154=CARTESIAN_POINT('',(-25.000000000000007,37.500000000000000,5.299999999999997));
#155=CARTESIAN_POINT('',(-25.000000000000007,37.500000000000000,-5.299999999999997));
#156=CARTESIAN_POINT('',(-37.500000000000000,37.500000000000000,5.299999999999997));
#157=CARTESIAN_POINT('',(-37.500000000000000,37.500000000000000,-5.299999999999997));
#158=CARTESIAN_POINT('',(-37.500000000000007,25.0,5.299999999999997));
#159=CARTESIAN_POINT('',(-37.500000000000007,25.0,-5.299999999999997));
#167=(BOUNDED_SURFACE()B_SPLINE_SURFACE(1,2,((#142,#144,#146,#148,#150,#152,#154,#156,#158),(#143,#145,#147,#149,#151,#153,#155,#157,#159)),.UNSPECIFIED.,.F.,.T.,.U.)B_SPLINE_SURFACE_WITH_KNOTS((2,2),(3,2,2,2,3),(-9.541273709521178,-8.693273709521179),(0.0,19.634954084936208,39.269908169872416,58.904862254808620,78.539816339744831),.UNSPECIFIED.)GEOMETRIC_REPRESENTATION_ITEM()RATIONAL_B_SPLINE_SURFACE(((1.0,0.707106781186548,1.0,0.707106781186548,1.0,0.707106781186548,1.0,0.707106781186548,1.0),(1.0,0.707106781186548,1.0,0.707106781186548,1.0,0.707106781186548,1.0,0.707106781186548,1.0)))REPRESENTATION_ITEM('')SURFACE());
#168=CARTESIAN_POINT('',(-37.500000000000007,25.0,-5.299999999999994));
#169=VERTEX_POINT('',#168);
#170=CARTESIAN_POINT('',(-25.000000000000007,25.0,-5.299999999999994));
#171=DIRECTION('',(0.0,0.0,1.0));
#172=DIRECTION('',(1.0,0.0,0.0));
#173=AXIS2_PLACEMENT_3D('',#170,#171,#172);
#174=CIRCLE('',#173,12.500000000000000);
#175=EDGE_CURVE('',#169,#169,#174,.T.);
#176=ORIENTED_EDGE('',*,*,#175,.F.);
#177=EDGE_LOOP('',(#176));
#178=FACE_OUTER_BOUND('',#177,.T.);
#179=CARTESIAN_POINT('',(-12.500000000000009,25.0,5.300000000000001));
#180=VERTEX_POINT('',#179);
#181=CARTESIAN_POINT('',(-25.000000000000007,25.0,5.299999999999994));
#182=DIRECTION('',(0.0,0.0,-1.0));
#183=DIRECTION('',(1.0,0.0,0.0));
#184=AXIS2_PLACEMENT_3D('',#181,#182,#183);
#185=CIRCLE('',#184,12.500000000000000);
#186=EDGE_CURVE('',#180,#180,#185,.T.);
#187=ORIENTED_EDGE('',*,*,#186,.F.);
#188=EDGE_LOOP('',(#187));
#189=FACE_BOUND('',#188,.T.);
#190=ADVANCED_FACE('',(#178,#189),#167,.F.);
#191=CARTESIAN_POINT('',(12.500000000000007,-25.0,5.299999999999997));
#192=CARTESIAN_POINT('',(12.500000000000007,-25.0,-5.299999999999997));
#193=CARTESIAN_POINT('',(12.500000000000009,-37.500000000000000,5.299999999999997));
#194=CARTESIAN_POINT('',(12.500000000000009,-37.500000000000000,-5.299999999999997));
#195=CARTESIAN_POINT('',(25.000000000000007,-37.500000000000000,5.299999999999997));
#196=CARTESIAN_POINT('',(25.000000000000007,-37.500000000000000,-5.299999999999997));
#197=CARTESIAN_POINT('',(37.500000000000000,-37.500000000000000,5.299999999999997));
#198=CARTESIAN_POINT('',(37.500000000000000,-37.500000000000000,-5.299999999999997));
#199=CARTESIAN_POINT('',(37.500000000000007,-25.0,5.299999999999997));
#200=CARTESIAN_POINT('',(37.500000000000007,-25.0,-5.299999999999997));
#201=CARTESIAN_POINT('',(37.500000000000000,-12.500000000000005,5.299999999999997));
#202=CARTESIAN_POINT('',(37.500000000000000,-12.500000000000005,-5.299999999999997));
#203=CARTESIAN_POINT('',(25.000000000000007,-12.500000000000000,5.299999999999997));
#204=CARTESIAN_POINT('',(25.000000000000007,-12.500000000000000,-5.299999999999997));
#205=CARTESIAN_POINT('',(12.500000000000009,-12.500000000000005,5.299999999999997));
#206=CARTESIAN_POINT('',(12.500000000000009,-12.500000000000005,-5.299999999999997));
#207=CARTESIAN_POINT('',(12.500000000000007,-25.0,5.299999999999997));
#208=CARTESIAN_POINT('',(12.500000000000007,-25.0,-5.299999999999997));
#216=(BOUNDED_SURFACE()B_SPLINE_SURFACE(1,2,((#191,#193,#195,#197,#199,#201,#203,#205,#207),(#192,#194,#196,#198,#200,#202,#204,#206,#208)),.UNSPECIFIED.,.F.,.T.,.U.)B_SPLINE_SURFACE_WITH_KNOTS((2,2),(3,2,2,2,3),(-9.541273709521178,-8.693273709521179),(0.0,19.634954084936208,39.269908169872416,58.904862254808620,78.539816339744831),.UNSPECIFIED.)GEOMETRIC_REPRESENTATION_ITEM()RATIONAL_B_SPLINE_SURFACE(((1.0,0.707106781186548,1.0,0.707106781186548,1.0,0.707106781186548,1.0,0.707106781186548,1.0),(1.0,0.707106781186548,1.0,0.707106781186548,1.0,0.707106781186548,1.0,0.707106781186548,1.0)))REPRESENTATION_ITEM('')SURFACE());
#217=CARTESIAN_POINT('',(12.500000000000009,-25.0,-5.299999999999994));
#218=VERTEX_POINT('',#217);
#219=CARTESIAN_POINT('',(25.000000000000007,-25.0,-5.299999999999994));
#220=DIRECTION('',(0.0,0.0,1.0));
#221=DIRECTION('',(1.0,0.0,0.0));
#222=AXIS2_PLACEMENT_3D('',#219,#220,#221);
#223=CIRCLE('',#222,12.500000000000000);
#224=EDGE_CURVE('',#218,#218,#223,.T.);
#225=ORIENTED_EDGE('',*,*,#224,.F.);
#226=EDGE_LOOP('',(#225));
#227=FACE_OUTER_BOUND('',#226,.T.);
#228=CARTESIAN_POINT('',(37.500000000000007,-25.0,5.300000000000001));
#229=VERTEX_POINT('',#228);
#230=CARTESIAN_POINT('',(25.000000000000007,-25.0,5.299999999999994));
#231=DIRECTION('',(0.0,0.0,-1.0));
#232=DIRECTION('',(1.0,0.0,0.0));
#233=AXIS2_PLACEMENT_3D('',#230,#231,#232);
#234=CIRCLE('',#233,12.500000000000000);
#235=EDGE_CURVE('',#229,#229,#234,.T.);
#236=ORIENTED_EDGE('',*,*,#235,.F.);
#237=EDGE_LOOP('',(#236));
#238=FACE_BOUND('',#237,.T.);
#239=ADVANCED_FACE('',(#227,#238),#216,.F.);
#240=CARTESIAN_POINT('',(38.999999999999993,39.000000000000007,0.0));
#241=DIRECTION('',(0.707106781186548,0.707106781186547,0.0));
#242=DIRECTION('',(0.0,0.0,-1.0));
#243=AXIS2_PLACEMENT_3D('',#240,#241,#242);
#244=PLANE('',#243);
#245=CARTESIAN_POINT('',(41.999999999999993,36.000000000000007,-5.300000000000001));
#246=VERTEX_POINT('',#245);
#247=CARTESIAN_POINT('',(36.0,42.000000000000014,-5.300000000000001));
#248=VERTEX_POINT('',#247);
#249=CARTESIAN_POINT('',(41.999999999999993,36.000000000000007,-5.300000000000001));
#250=DIRECTION('',(-0.707106781186547,0.707106781186548,0.0));
#251=VECTOR('',#250,8.485281374238570);
#252=LINE('',#249,#251);
#253=EDGE_CURVE('',#246,#248,#252,.T.);
#254=ORIENTED_EDGE('',*,*,#253,.T.);
#255=CARTESIAN_POINT('',(36.0,42.000000000000014,5.300000000000001));
#256=VERTEX_POINT('',#255);
#257=CARTESIAN_POINT('',(36.0,42.000000000000014,-5.300000000000001));
#258=DIRECTION('',(0.0,0.0,1.0));
#259=VECTOR('',#258,10.600000000000001);
#260=LINE('',#257,#259);
#261=EDGE_CURVE('',#248,#256,#260,.T.);
#262=ORIENTED_EDGE('',*,*,#261,.T.);
#263=CARTESIAN_POINT('',(41.999999999999993,36.000000000000007,5.300000000000001));
#264=VERTEX_POINT('',#263);
#265=CARTESIAN_POINT('',(36.0,42.000000000000014,5.300000000000001));
#266=DIRECTION('',(0.707106781186547,-0.707106781186548,0.0));
#267=VECTOR('',#266,8.485281374238570);
#268=LINE('',#265,#267);
#269=EDGE_CURVE('',#256,#264,#268,.T.);
#270=ORIENTED_EDGE('',*,*,#269,.T.);
#271=CARTESIAN_POINT('',(41.999999999999993,36.000000000000007,5.300000000000001));
#272=DIRECTION('',(0.0,0.0,-1.0));
#273=VECTOR('',#272,10.600000000000001);
#274=LINE('',#271,#273);
#275=EDGE_CURVE('',#264,#246,#274,.T.);
#276=ORIENTED_EDGE('',*,*,#275,.T.);
#277=EDGE_LOOP('',(#254,#262,#270,#276));
#278=FACE_OUTER_BOUND('',#277,.T.);
#279=ADVANCED_FACE('',(#278),#244,.T.);
#280=CARTESIAN_POINT('',(-42.000000000000014,42.0,0.0));
#281=DIRECTION('',(0.0,1.0,0.0));
#282=DIRECTION('',(0.0,0.0,1.0));
#283=AXIS2_PLACEMENT_3D('',#280,#281,#282);
#284=PLANE('',#283);
#285=ORIENTED_EDGE('',*,*,#261,.F.);
#286=CARTESIAN_POINT('',(-36.000000000000014,42.0,-5.300000000000001));
#287=VERTEX_POINT('',#286);
#288=CARTESIAN_POINT('',(36.0,42.000000000000014,-5.300000000000001));
#289=DIRECTION('',(-1.0,0.0,0.0));
#290=VECTOR('',#289,72.000000000000014);
#291=LINE('',#288,#290);
#292=EDGE_CURVE('',#248,#287,#291,.T.);
#293=ORIENTED_EDGE('',*,*,#292,.T.);
#294=CARTESIAN_POINT('',(-36.000000000000014,42.0,5.300000000000001));
#295=VERTEX_POINT('',#294);
#296=CARTESIAN_POINT('',(-36.000000000000014,42.0,5.300000000000001));
#297=DIRECTION('',(0.0,0.0,-1.0));
#298=VECTOR('',#297,10.600000000000001);
#299=LINE('',#296,#298);
#300=EDGE_CURVE('',#295,#287,#299,.T.);
#301=ORIENTED_EDGE('',*,*,#300,.F.);
#302=CARTESIAN_POINT('',(-36.000000000000014,42.0,5.300000000000001));
#303=DIRECTION('',(1.0,0.0,0.0));
#304=VECTOR('',#303,72.000000000000014);
#305=LINE('',#302,#304);
#306=EDGE_CURVE('',#295,#256,#305,.T.);
#307=ORIENTED_EDGE('',*,*,#306,.T.);
#308=EDGE_LOOP('',(#285,#293,#301,#307));
#309=FACE_OUTER_BOUND('',#308,.T.);
#310=ADVANCED_FACE('',(#309),#284,.T.);
#311=CARTESIAN_POINT('',(-6.661338E-015,0.0,-5.300000000000001));
#312=DIRECTION('',(0.0,0.0,1.0));
#313=DIRECTION('',(1.0,0.0,0.0));
#314=AXIS2_PLACEMENT_3D('',#311,#312,#313);
#315=PLANE('',#314);
#316=ORIENTED_EDGE('',*,*,#253,.F.);
#317=CARTESIAN_POINT('',(41.999999999999993,-36.000000000000014,-5.300000000000001));
#318=VERTEX_POINT('',#317);
#319=CARTESIAN_POINT('',(41.999999999999993,-36.000000000000014,-5.300000000000001));
#320=DIRECTION('',(0.0,1.0,0.0));
#321=VECTOR('',#320,72.000000000000028);
#322=LINE('',#319,#321);
#323=EDGE_CURVE('',#318,#246,#322,.T.);
#324=ORIENTED_EDGE('',*,*,#323,.F.);
#325=CARTESIAN_POINT('',(35.999999999999993,-42.000000000000014,-5.300000000000001));
#326=VERTEX_POINT('',#325);
#327=CARTESIAN_POINT('',(35.999999999999993,-42.000000000000014,-5.300000000000001));
#328=DIRECTION('',(0.707106781186548,0.707106781186548,0.0));
#329=VECTOR('',#328,8.485281374238570);
#330=LINE('',#327,#329);
#331=EDGE_CURVE('',#326,#318,#330,.T.);
#332=ORIENTED_EDGE('',*,*,#331,.F.);
#333=CARTESIAN_POINT('',(-36.000000000000014,-42.0,-5.300000000000001));
#334=VERTEX_POINT('',#333);
#335=CARTESIAN_POINT('',(-36.000000000000014,-42.0,-5.300000000000001));
#336=DIRECTION('',(1.0,0.0,0.0));
#337=VECTOR('',#336,72.0);
#338=LINE('',#335,#337);
#339=EDGE_CURVE('',#334,#326,#338,.T.);
#340=ORIENTED_EDGE('',*,*,#339,.F.);
#341=CARTESIAN_POINT('',(-42.000000000000014,-36.0,-5.300000000000001));
#342=VERTEX_POINT('',#341);
#343=CARTESIAN_POINT('',(-42.000000000000014,-36.0,-5.300000000000001));
#344=DIRECTION('',(0.707106781186548,-0.707106781186548,0.0));
#345=VECTOR('',#344,8.485281374238570);
#346=LINE('',#343,#345);
#347=EDGE_CURVE('',#342,#334,#346,.T.);
#348=ORIENTED_EDGE('',*,*,#347,.F.);
#349=CARTESIAN_POINT('',(-42.000000000000014,36.000000000000007,-5.300000000000001));
#350=VERTEX_POINT('',#349);
#351=CARTESIAN_POINT('',(-42.000000000000014,36.000000000000007,-5.300000000000001));
#352=DIRECTION('',(0.0,-1.0,0.0));
#353=VECTOR('',#352,72.0);
#354=LINE('',#351,#353);
#355=EDGE_CURVE('',#350,#342,#354,.T.);
#356=ORIENTED_EDGE('',*,*,#355,.F.);
#357=CARTESIAN_POINT('',(-36.000000000000014,42.0,-5.300000000000001));
#358=DIRECTION('',(-0.707106781186548,-0.707106781186547,0.0));
#359=VECTOR('',#358,8.485281374238566);
#360=LINE('',#357,#359);
#361=EDGE_CURVE('',#287,#350,#360,.T.);
#362=ORIENTED_EDGE('',*,*,#361,.F.);
#363=ORIENTED_EDGE('',*,*,#292,.F.);
#364=EDGE_LOOP('',(#316,#324,#332,#340,#348,#356,#362,#363));
#365=FACE_OUTER_BOUND('',#364,.T.);
#366=ORIENTED_EDGE('',*,*,#77,.T.);
#367=EDGE_LOOP('',(#366));
#368=FACE_BOUND('',#367,.T.);
#369=ORIENTED_EDGE('',*,*,#126,.T.);
#370=EDGE_LOOP('',(#369));
#371=FACE_BOUND('',#370,.T.);
#372=ORIENTED_EDGE('',*,*,#175,.T.);
#373=EDGE_LOOP('',(#372));
#374=FACE_BOUND('',#373,.T.);
#375=ORIENTED_EDGE('',*,*,#224,.T.);
#376=EDGE_LOOP('',(#375));
#377=FACE_BOUND('',#376,.T.);
#378=ADVANCED_FACE('',(#365,#368,#371,#374,#377),#315,.F.);
#379=CARTESIAN_POINT('',(-39.000000000000014,39.0,0.0));
#380=DIRECTION('',(-0.707106781186548,0.707106781186548,0.0));
#381=DIRECTION('',(0.0,0.0,1.0));
#382=AXIS2_PLACEMENT_3D('',#379,#380,#381);
#383=PLANE('',#382);
#384=ORIENTED_EDGE('',*,*,#361,.T.);
#385=CARTESIAN_POINT('',(-42.000000000000014,36.000000000000007,5.300000000000001));
#386=VERTEX_POINT('',#385);
#387=CARTESIAN_POINT('',(-42.000000000000014,36.000000000000007,-5.300000000000001));
#388=DIRECTION('',(0.0,0.0,1.0));
#389=VECTOR('',#388,10.600000000000001);
#390=LINE('',#387,#389);
#391=EDGE_CURVE('',#350,#386,#390,.T.);
#392=ORIENTED_EDGE('',*,*,#391,.T.);
#393=CARTESIAN_POINT('',(-42.000000000000014,36.000000000000007,5.300000000000001));
#394=DIRECTION('',(0.707106781186548,0.707106781186547,0.0));
#395=VECTOR('',#394,8.485281374238566);
#396=LINE('',#393,#395);
#397=EDGE_CURVE('',#386,#295,#396,.T.);
#398=ORIENTED_EDGE('',*,*,#397,.T.);
#399=ORIENTED_EDGE('',*,*,#300,.T.);
#400=EDGE_LOOP('',(#384,#392,#398,#399));
#401=FACE_OUTER_BOUND('',#400,.T.);
#402=ADVANCED_FACE('',(#401),#383,.T.);
#403=CARTESIAN_POINT('',(-42.000000000000014,-42.0,0.0));
#404=DIRECTION('',(-1.0,0.0,0.0));
#405=DIRECTION('',(0.0,0.0,1.0));
#406=AXIS2_PLACEMENT_3D('',#403,#404,#405);
#407=PLANE('',#406);
#408=ORIENTED_EDGE('',*,*,#391,.F.);
#409=ORIENTED_EDGE('',*,*,#355,.T.);
#410=CARTESIAN_POINT('',(-42.000000000000014,-36.0,5.300000000000001));
#411=VERTEX_POINT('',#410);
#412=CARTESIAN_POINT('',(-42.000000000000014,-36.0,5.300000000000001));
#413=DIRECTION('',(0.0,0.0,-1.0));
#414=VECTOR('',#413,10.600000000000001);
#415=LINE('',#412,#414);
#416=EDGE_CURVE('',#411,#342,#415,.T.);
#417=ORIENTED_EDGE('',*,*,#416,.F.);
#418=CARTESIAN_POINT('',(-42.000000000000014,-36.0,5.300000000000001));
#419=DIRECTION('',(0.0,1.0,0.0));
#420=VECTOR('',#419,72.0);
#421=LINE('',#418,#420);
#422=EDGE_CURVE('',#411,#386,#421,.T.);
#423=ORIENTED_EDGE('',*,*,#422,.T.);
#424=EDGE_LOOP('',(#408,#409,#417,#423));
#425=FACE_OUTER_BOUND('',#424,.T.);
#426=ADVANCED_FACE('',(#425),#407,.T.);
#427=CARTESIAN_POINT('',(38.999999999999993,-39.000000000000014,0.0));
#428=DIRECTION('',(0.707106781186547,-0.707106781186548,0.0));
#429=DIRECTION('',(0.0,0.0,-1.0));
#430=AXIS2_PLACEMENT_3D('',#427,#428,#429);
#431=PLANE('',#430);
#432=CARTESIAN_POINT('',(41.999999999999993,-36.000000000000014,5.300000000000001));
#433=VERTEX_POINT('',#432);
#434=CARTESIAN_POINT('',(35.999999999999993,-42.000000000000014,5.300000000000001));
#435=VERTEX_POINT('',#434);
#436=CARTESIAN_POINT('',(41.999999999999993,-36.000000000000014,5.300000000000001));
#437=DIRECTION('',(-0.707106781186548,-0.707106781186548,0.0));
#438=VECTOR('',#437,8.485281374238570);
#439=LINE('',#436,#438);
#440=EDGE_CURVE('',#433,#435,#439,.T.);
#441=ORIENTED_EDGE('',*,*,#440,.T.);
#442=CARTESIAN_POINT('',(35.999999999999993,-42.000000000000014,5.300000000000001));
#443=DIRECTION('',(0.0,0.0,-1.0));
#444=VECTOR('',#443,10.600000000000001);
#445=LINE('',#442,#444);
#446=EDGE_CURVE('',#435,#326,#445,.T.);
#447=ORIENTED_EDGE('',*,*,#446,.T.);
#448=ORIENTED_EDGE('',*,*,#331,.T.);
#449=CARTESIAN_POINT('',(41.999999999999993,-36.000000000000014,-5.300000000000001));
#450=DIRECTION('',(0.0,0.0,1.0));
#451=VECTOR('',#450,10.600000000000001);
#452=LINE('',#449,#451);
#453=EDGE_CURVE('',#318,#433,#452,.T.);
#454=ORIENTED_EDGE('',*,*,#453,.T.);
#455=EDGE_LOOP('',(#441,#447,#448,#454));
#456=FACE_OUTER_BOUND('',#455,.T.);
#457=ADVANCED_FACE('',(#456),#431,.T.);
#458=CARTESIAN_POINT('',(41.999999999999993,-42.000000000000014,0.0));
#459=DIRECTION('',(0.0,-1.0,0.0));
#460=DIRECTION('',(0.0,0.0,-1.0));
#461=AXIS2_PLACEMENT_3D('',#458,#459,#460);
#462=PLANE('',#461);
#463=ORIENTED_EDGE('',*,*,#446,.F.);
#464=CARTESIAN_POINT('',(-36.000000000000014,-42.0,5.300000000000001));
#465=VERTEX_POINT('',#464);
#466=CARTESIAN_POINT('',(35.999999999999993,-42.000000000000014,5.300000000000001));
#467=DIRECTION('',(-1.0,0.0,0.0));
#468=VECTOR('',#467,72.0);
#469=LINE('',#466,#468);
#470=EDGE_CURVE('',#435,#465,#469,.T.);
#471=ORIENTED_EDGE('',*,*,#470,.T.);
#472=CARTESIAN_POINT('',(-36.000000000000014,-42.0,-5.300000000000001));
#473=DIRECTION('',(0.0,0.0,1.0));
#474=VECTOR('',#473,10.600000000000001);
#475=LINE('',#472,#474);
#476=EDGE_CURVE('',#334,#465,#475,.T.);
#477=ORIENTED_EDGE('',*,*,#476,.F.);
#478=ORIENTED_EDGE('',*,*,#339,.T.);
#479=EDGE_LOOP('',(#463,#471,#477,#478));
#480=FACE_OUTER_BOUND('',#479,.T.);
#481=ADVANCED_FACE('',(#480),#462,.T.);
#482=CARTESIAN_POINT('',(-39.000000000000014,-39.0,0.0));
#483=DIRECTION('',(-0.707106781186548,-0.707106781186548,0.0));
#484=DIRECTION('',(0.0,0.0,1.0));
#485=AXIS2_PLACEMENT_3D('',#482,#483,#484);
#486=PLANE('',#485);
#487=ORIENTED_EDGE('',*,*,#347,.T.);
#488=ORIENTED_EDGE('',*,*,#476,.T.);
#489=CARTESIAN_POINT('',(-36.000000000000014,-42.0,5.300000000000001));
#490=DIRECTION('',(-0.707106781186548,0.707106781186548,0.0));
#491=VECTOR('',#490,8.485281374238570);
#492=LINE('',#489,#491);
#493=EDGE_CURVE('',#465,#411,#492,.T.);
#494=ORIENTED_EDGE('',*,*,#493,.T.);
#495=ORIENTED_EDGE('',*,*,#416,.T.);
#496=EDGE_LOOP('',(#487,#488,#494,#495));
#497=FACE_OUTER_BOUND('',#496,.T.);
#498=ADVANCED_FACE('',(#497),#486,.T.);
#499=CARTESIAN_POINT('',(41.999999999999993,42.000000000000014,0.0));
#500=DIRECTION('',(1.0,0.0,0.0));
#501=DIRECTION('',(0.0,0.0,-1.0));
#502=AXIS2_PLACEMENT_3D('',#499,#500,#501);
#503=PLANE('',#502);
#504=ORIENTED_EDGE('',*,*,#275,.F.);
#505=CARTESIAN_POINT('',(41.999999999999993,36.000000000000007,5.300000000000001));
#506=DIRECTION('',(0.0,-1.0,0.0));
#507=VECTOR('',#506,72.000000000000028);
#508=LINE('',#505,#507);
#509=EDGE_CURVE('',#264,#433,#508,.T.);
#510=ORIENTED_EDGE('',*,*,#509,.T.);
#511=ORIENTED_EDGE('',*,*,#453,.F.);
#512=ORIENTED_EDGE('',*,*,#323,.T.);
#513=EDGE_LOOP('',(#504,#510,#511,#512));
#514=FACE_OUTER_BOUND('',#513,.T.);
#515=ADVANCED_FACE('',(#514),#503,.T.);
#516=CARTESIAN_POINT('',(-6.661338E-015,6.055762E-016,5.300000000000001));
#517=DIRECTION('',(0.0,0.0,1.0));
#518=DIRECTION('',(1.0,0.0,0.0));
#519=AXIS2_PLACEMENT_3D('',#516,#517,#518);
#520=PLANE('',#519);
#521=ORIENTED_EDGE('',*,*,#269,.F.);
#522=ORIENTED_EDGE('',*,*,#306,.F.);
#523=ORIENTED_EDGE('',*,*,#397,.F.);
#524=ORIENTED_EDGE('',*,*,#422,.F.);
#525=ORIENTED_EDGE('',*,*,#493,.F.);
#526=ORIENTED_EDGE('',*,*,#470,.F.);
#527=ORIENTED_EDGE('',*,*,#440,.F.);
#528=ORIENTED_EDGE('',*,*,#509,.F.);
#529=EDGE_LOOP('',(#521,#522,#523,#524,#525,#526,#527,#528));
#530=FACE_OUTER_BOUND('',#529,.T.);
#531=ORIENTED_EDGE('',*,*,#88,.T.);
#532=EDGE_LOOP('',(#531));
#533=FACE_BOUND('',#532,.T.);
#534=ORIENTED_EDGE('',*,*,#137,.T.);
#535=EDGE_LOOP('',(#534));
#536=FACE_BOUND('',#535,.T.);
#537=ORIENTED_EDGE('',*,*,#186,.T.);
#538=EDGE_LOOP('',(#537));
#539=FACE_BOUND('',#538,.T.);
#540=ORIENTED_EDGE('',*,*,#235,.T.);
#541=EDGE_LOOP('',(#540));
#542=FACE_BOUND('',#541,.T.);
#543=ADVANCED_FACE('',(#530,#533,#536,#539,#542),#520,.T.);
#544=CLOSED_SHELL('',(#92,#141,#190,#239,#279,#310,#378,#402,#426,#457,#481,#498,#515,#543));
#545=MANIFOLD_SOLID_BREP('',#544);
#546=COLOUR_RGB('Aluminium (gleichmig)',0.847058832645416,0.839215695858002,0.839215695858002);
#547=FILL_AREA_STYLE_COLOUR('Aluminium (gleichmig)',#546);
#548=FILL_AREA_STYLE('Aluminium (gleichmig)',(#547));
#549=SURFACE_STYLE_FILL_AREA(#548);
#550=SURFACE_SIDE_STYLE('Aluminium (gleichmig)',(#549));
#551=SURFACE_STYLE_USAGE(.BOTH.,#550);
#552=PRESENTATION_STYLE_ASSIGNMENT((#551));
#553=STYLED_ITEM('',(#552),#545);
#554=MECHANICAL_DESIGN_GEOMETRIC_PRESENTATION_REPRESENTATION('',(#553),#36);
#555=ADVANCED_BREP_SHAPE_REPRESENTATION('ABSR',(#545),#36);
#556=SHAPE_REPRESENTATION_RELATIONSHIP('SRR','None',#555,#41);
ENDSEC;
END-ISO-10303-21;
