                                                                        S      1
,,7HSL8602S,27HNo Iges File Name specified,23HAutoDesk Inventor R11.0,  G      1
37HAutoDesk Inventor Iges Exporter R11.0,32,38,6,99,15,7HSL8602S,1.0D0, G      2
2,2HMM,1,.08D0,15H20070910.120525,.01D0,10000.0D0,19HNo Author specifiedG      3
,25HNo Organization specified,11,0,,33HNo Application Protocol specifiedG      4
;                                                                       G      5
     128       1       0       0       0       0       0       000010000D      1
     128       0       0      34       0                               0D      2
     502      35       0       0       0       0       0       000010000D      3
     502       0       0       6       1                               0D      4
     100      41       0       0       0       0       7       000010000D      5
     100       0       0       2       0                               0D      6
     124      43       0       0       0       0       0       000000000D      7
     124       0       0       2       0                               0D      8
     504      45       0       0       0       0       0       000010001D      9
     504       0       0       4       1                               0D     10
     100      49       0       0       0       0      13       000010000D     11
     100       0       0       2       0                               0D     12
     124      51       0       0       0       0       0       000000000D     13
     124       0       0       2       0                               0D     14
     100      53       0       0       0       0      17       000010000D     15
     100       0       0       2       0                               0D     16
     124      55       0       0       0       0       0       000000000D     17
     124       0       0       2       0                               0D     18
     100      57       0       0       0       0      17       000010000D     19
     100       0       0       1       0                               0D     20
     508      58       0       0       0       0       0       000010000D     21
     508       0       0       1       1                               0D     22
     510      59       0       0       0       0       0       000010001D     23
     510       0       0       1       1                               0D     24
     116      60       0       0       0       0       0       000010000D     25
     116       0       0       1       0                               0D     26
     123      61       0       0       0       0       0       000010200D     27
     123       0       0       1       0                               0D     28
     192      62       0       0       0       0       0       000010000D     29
     192       0       0       1       1                               0D     30
     123      63       0       0       0       0       0       000010200D     31
     123       0       0       1       0                               0D     32
     110      64       0       0       0       0       0       000010000D     33
     110       0       0       1       0                               0D     34
     100      65       0       0       0       0      17       000010000D     35
     100       0       0       2       0                               0D     36
     110      67       0       0       0       0       0       000010000D     37
     110       0       0       2       0                               0D     38
     100      69       0       0       0       0      41       000010000D     39
     100       0       0       2       0                               0D     40
     124      71       0       0       0       0       0       000000000D     41
     124       0       0       2       0                               0D     42
     508      73       0       0       0       0       0       000010000D     43
     508       0       0       1       1                               0D     44
     510      74       0       0       0       0       0       000010001D     45
     510       0       0       1       1                               0D     46
     116      75       0       0       0       0       0       000010000D     47
     116       0       0       1       0                               0D     48
     123      76       0       0       0       0       0       000010200D     49
     123       0       0       1       0                               0D     50
     192      77       0       0       0       0       0       000010000D     51
     192       0       0       1       1                               0D     52
     123      78       0       0       0       0       0       000010200D     53
     123       0       0       1       0                               0D     54
     110      79       0       0       0       0       0       000010000D     55
     110       0       0       1       0                               0D     56
     100      80       0       0       0       0      59       000010000D     57
     100       0       0       1       0                               0D     58
     124      81       0       0       0       0       0       000000000D     59
     124       0       0       2       0                               0D     60
     110      83       0       0       0       0       0       000010000D     61
     110       0       0       2       0                               0D     62
     100      85       0       0       0       0      41       000010000D     63
     100       0       0       1       0                               0D     64
     508      86       0       0       0       0       0       000010000D     65
     508       0       0       1       1                               0D     66
     510      87       0       0       0       0       0       000010001D     67
     510       0       0       1       1                               0D     68
     116      88       0       0       0       0       0       000010000D     69
     116       0       0       1       0                               0D     70
     123      89       0       0       0       0       0       000010200D     71
     123       0       0       1       0                               0D     72
     192      90       0       0       0       0       0       000010000D     73
     192       0       0       1       1                               0D     74
     123      91       0       0       0       0       0       000010200D     75
     123       0       0       1       0                               0D     76
     100      92       0       0       0       0      41       000010000D     77
     100       0       0       2       0                               0D     78
     100      94       0       0       0       0      59       000010000D     79
     100       0       0       2       0                               0D     80
     508      96       0       0       0       0       0       000010000D     81
     508       0       0       1       1                               0D     82
     510      97       0       0       0       0       0       000010001D     83
     510       0       0       1       1                               0D     84
     116      98       0       0       0       0       0       000010000D     85
     116       0       0       1       0                               0D     86
     123      99       0       0       0       0       0       000010200D     87
     123       0       0       1       0                               0D     88
     190     100       0       0       0       0       0       000010000D     89
     190       0       0       1       1                               0D     90
     123     101       0       0       0       0       0       000010200D     91
     123       0       0       1       0                               0D     92
     508     102       0       0       0       0       0       000010000D     93
     508       0       0       1       1                               0D     94
     510     103       0       0       0       0       0       000010001D     95
     510       0       0       1       1                               0D     96
     116     104       0       0       0       0       0       000010000D     97
     116       0       0       1       0                               0D     98
     123     105       0       0       0       0       0       000010200D     99
     123       0       0       1       0                               0D    100
     192     106       0       0       0       0       0       000010000D    101
     192       0       0       1       1                               0D    102
     123     107       0       0       0       0       0       000010200D    103
     123       0       0       1       0                               0D    104
     100     108       0       0       0       0      41       000010000D    105
     100       0       0       1       0                               0D    106
     100     109       0       0       0       0      17       000010000D    107
     100       0       0       1       0                               0D    108
     508     110       0       0       0       0       0       000010000D    109
     508       0       0       1       1                               0D    110
     510     111       0       0       0       0       0       000010001D    111
     510       0       0       1       1                               0D    112
     116     112       0       0       0       0       0       000010000D    113
     116       0       0       1       0                               0D    114
     123     113       0       0       0       0       0       000010200D    115
     123       0       0       1       0                               0D    116
     190     114       0       0       0       0       0       000010000D    117
     190       0       0       1       1                               0D    118
     123     115       0       0       0       0       0       000010200D    119
     123       0       0       1       0                               0D    120
     508     116       0       0       0       0       0       000010000D    121
     508       0       0       1       1                               0D    122
     100     117       0       0       0       0      17       000010000D    123
     100       0       0       2       0                               0D    124
     508     119       0       0       0       0       0       000010000D    125
     508       0       0       1       1                               0D    126
     510     120       0       0       0       0       0       000010001D    127
     510       0       0       1       1                               0D    128
     128     121       0       0       0       0       0       000010000D    129
     128       0       0      34       0                               0D    130
     508     155       0       0       0       0       0       000010000D    131
     508       0       0       1       1                               0D    132
     510     156       0       0       0       0       0       000010001D    133
     510       0       0       1       1                               0D    134
     116     157       0       0       0       0       0       000010000D    135
     116       0       0       1       0                               0D    136
     123     158       0       0       0       0       0       000010200D    137
     123       0       0       1       0                               0D    138
     190     159       0       0       0       0       0       000010000D    139
     190       0       0       1       1                               0D    140
     123     160       0       0       0       0       0       000010200D    141
     123       0       0       1       0                               0D    142
     508     161       0       0       0       0       0       000010000D    143
     508       0       0       1       1                               0D    144
     508     162       0       0       0       0       0       000010000D    145
     508       0       0       1       1                               0D    146
     510     163       0       0       0       0       0       000010001D    147
     510       0       0       1       1                               0D    148
     514     164       0       0       0       0       0       000010000D    149
     514       0       0       1       1                               0D    150
     186     165       0       0       1       0       0       000000000D    151
     186       0    -153       1       0                               0D    152
     314     166       0       0       0       0       0       000000200D    153
     314       0       0       2       0                               0D    154
128,2,8,2,2,0,1,0,0,0,2.44059874209322D-2,2.44059874209322D-2,         1P      1
2.44059874209322D-2,.874455127521702D0,.874455127521702D0,             1P      2
.874455127521702D0,0.0D0,0.0D0,0.0D0,1.5707963267949D0,                1P      3
1.5707963267949D0,3.14159265358979D0,3.14159265358979D0,               1P      4
4.71238898038469D0,4.71238898038469D0,6.28318530717959D0,              1P      5
6.28318530717959D0,6.28318530717959D0,1.0D0,.911028601936661D0,        1P      6
1.0D0,.707106781186548D0,.644194502284313D0,.707106781186548D0,        1P      7
1.0D0,.911028601936661D0,1.0D0,.707106781186548D0,                     1P      8
.644194502284313D0,.707106781186548D0,1.0D0,.911028601936661D0,        1P      9
1.0D0,.707106781186548D0,.644194502284313D0,.707106781186548D0,        1P     10
1.0D0,.911028601936661D0,1.0D0,.707106781186548D0,                     1P     11
.644194502284313D0,.707106781186548D0,1.0D0,.911028601936661D0,        1P     12
1.0D0,3.01253163040305D-15,7.0D0,-24.6D0,2.9196605786123D-15,          1P     13
38.0671368929831D0,-23.8416252659406D0,0.0D0,58.0D0,                   1P     14
-7.105427357601D-15,24.6D0,7.0D0,-24.6D0,23.8416252659406D0,           1P     15
38.0671368929831D0,-23.8416252659406D0,7.105427357601D-15,             1P     16
58.0D0,-7.105427357601D-15,24.6D0,7.0D0,3.01253163040305D-15,          1P     17
23.8416252659406D0,38.0671368929831D0,2.9196605786123D-15,             1P     18
7.105427357601D-15,58.0D0,0.0D0,24.6D0,7.0D0,24.6D0,                   1P     19
23.8416252659406D0,38.0671368929831D0,23.8416252659406D0,              1P     20
7.105427357601D-15,58.0D0,7.105427357601D-15,                          1P     21
-3.01253163040305D-15,7.0D0,24.6D0,-2.9196605786123D-15,               1P     22
38.0671368929831D0,23.8416252659406D0,0.0D0,58.0D0,                    1P     23
7.105427357601D-15,-24.6D0,7.0D0,24.6D0,-23.8416252659406D0,           1P     24
38.0671368929831D0,23.8416252659406D0,-7.105427357601D-15,             1P     25
58.0D0,7.105427357601D-15,-24.6D0,7.0D0,-3.01253163040305D-15,         1P     26
-23.8416252659406D0,38.0671368929831D0,-2.9196605786123D-15,           1P     27
-7.105427357601D-15,58.0D0,0.0D0,-24.6D0,7.0D0,-24.6D0,                1P     28
-23.8416252659406D0,38.0671368929831D0,-23.8416252659406D0,            1P     29
-7.105427357601D-15,58.0D0,-7.105427357601D-15,                        1P     30
3.01253163040305D-15,7.0D0,-24.6D0,2.9196605786123D-15,                1P     31
38.0671368929831D0,-23.8416252659406D0,0.0D0,58.0D0,                   1P     32
-7.105427357601D-15,2.44059874209322D-2,.874455127521702D0,            1P     33
0.0D0,6.28318530717959D0;                                              1P     34
502,12,0.0D0,58.0D0,0.0D0,0.0D0,7.0D0,24.6D0,                          3P     35
-3.01253163040305D-15,7.0D0,-24.6D0,-24.6D0,7.0D0,0.0D0,-26.0D0,       3P     36
7.0D0,0.0D0,-26.0D0,0.0D0,0.0D0,26.0D0,7.0D0,                          3P     37
-3.18397651993818D-15,26.0D0,0.0D0,-3.18397651993818D-15,-5.0D0,       3P     38
-28.0D0,0.0D0,-5.0D0,0.0D0,0.0D0,5.0D0,-28.0D0,                        3P     39
6.12303176911189D-16,5.0D0,0.0D0,6.12303176911189D-16;                 3P     40
100,0.0D0,0.0D0,0.0D0,44.039552274227D0,-52.675548744039D0,            5P     41
68.639552274227D0,-1.67554874403896D0;                                 5P     42
124,0.0D0,0.0D0,1.0D0,0.0D0,0.0D0,-1.0D0,0.0D0,                        7P     43
5.32445125596107D0,1.0D0,0.0D0,0.0D0,-44.0395522742271D0;              7P     44
504,17,5,3,1,3,2,11,3,1,3,3,15,3,3,3,4,19,3,4,3,2,33,3,5,3,6,35,       9P     45
3,7,3,5,37,3,7,3,8,39,3,8,3,6,55,3,9,3,10,57,3,9,3,11,61,3,11,3,       9P     46
12,63,3,10,3,12,77,3,12,3,10,79,3,11,3,9,105,3,6,3,8,107,3,5,3,        9P     47
7,123,3,2,3,3;                                                         9P     48
100,0.0D0,0.0D0,0.0D0,44.039552274227D0,-52.675548744039D0,           11P     49
68.639552274227D0,-1.67554874403896D0;                                11P     50
124,0.0D0,0.0D0,-1.0D0,5.39311155345112D-15,0.0D0,-1.0D0,0.0D0,       13P     51
5.32445125596107D0,-1.0D0,0.0D0,0.0D0,44.0395522742271D0;             13P     52
100,0.0D0,0.0D0,0.0D0,-4.51879744560457D-15,-24.6D0,24.6D0,           15P     53
-6.0250632608061D-15;                                                 15P     54
124,-1.0D0,0.0D0,0.0D0,0.0D0,0.0D0,0.0D0,1.0D0,7.0D0,0.0D0,           17P     55
1.0D0,0.0D0,0.0D0;                                                    17P     56
100,0.0D0,0.0D0,0.0D0,24.6D0,0.0D0,1.50626581520152D-15,24.6D0;       19P     57
508,4,0,9,1,0,0,0,9,2,1,0,0,9,3,1,0,0,9,4,1,0;                        21P     58
510,1,1,1,21;                                                         23P     59
116,0.0D0,3.5D0,0.0D0,0;                                              25P     60
123,0.0D0,1.0D0,0.0D0;                                                27P     61
192,25,27,26.0D0,31;                                                  29P     62
123,-1.0D0,0.0D0,0.0D0;                                               31P     63
110,-26.0D0,7.0D0,0.0D0,-26.0D0,0.0D0,0.0D0;                          33P     64
100,0.0D0,0.0D0,0.0D0,-26.0D0,3.18397651993818D-15,26.0D0,            35P     65
-6.36795303987636D-15;                                                35P     66
110,26.0D0,7.0D0,-3.18397651993818D-15,26.0D0,0.0D0,                  37P     67
-3.18397651993818D-15;                                                37P     68
100,0.0D0,0.0D0,0.0D0,-26.0D0,3.18397651993818D-15,26.0D0,            39P     69
-6.36795303987636D-15;                                                39P     70
124,-1.0D0,0.0D0,0.0D0,0.0D0,0.0D0,0.0D0,1.0D0,0.0D0,0.0D0,           41P     71
1.0D0,0.0D0,0.0D0;                                                    41P     72
508,4,0,9,5,0,0,0,9,6,0,0,0,9,7,1,0,0,9,8,1,0;                        43P     73
510,29,1,1,43;                                                        45P     74
116,0.0D0,0.0D0,0.0D0,0;                                              47P     75
123,0.0D0,-1.0D0,0.0D0;                                               49P     76
192,47,49,5.0D0,53;                                                   51P     77
123,-1.0D0,0.0D0,0.0D0;                                               53P     78
110,-5.0D0,-28.0D0,0.0D0,-5.0D0,0.0D0,0.0D0;                          55P     79
100,0.0D0,0.0D0,0.0D0,5.0D0,0.0D0,-5.0D0,6.12303176911189D-16;        57P     80
124,-1.0D0,0.0D0,0.0D0,0.0D0,0.0D0,0.0D0,1.0D0,-28.0D0,0.0D0,         59P     81
1.0D0,0.0D0,0.0D0;                                                    59P     82
110,5.0D0,-28.0D0,6.12303176911189D-16,5.0D0,0.0D0,                   61P     83
6.12303176911189D-16;                                                 61P     84
100,0.0D0,0.0D0,0.0D0,5.0D0,0.0D0,-5.0D0,6.12303176911189D-16;        63P     85
508,4,0,9,9,0,0,0,9,10,1,0,0,9,11,1,0,0,9,12,0,0;                     65P     86
510,51,1,1,65;                                                        67P     87
116,0.0D0,0.0D0,0.0D0,0;                                              69P     88
123,0.0D0,-1.0D0,0.0D0;                                               71P     89
192,69,71,5.0D0,75;                                                   73P     90
123,-1.0D0,0.0D0,0.0D0;                                               75P     91
100,0.0D0,0.0D0,0.0D0,-5.0D0,6.12303176911189D-16,5.0D0,              77P     92
-1.22460635382238D-15;                                                77P     93
100,0.0D0,0.0D0,0.0D0,-5.0D0,6.12303176911189D-16,5.0D0,              79P     94
-1.22460635382238D-15;                                                79P     95
508,4,0,9,9,1,0,0,9,13,0,0,0,9,11,0,0,0,9,14,1,0;                     81P     96
510,73,1,1,81;                                                        83P     97
116,0.0D0,-28.0D0,0.0D0,0;                                            85P     98
123,0.0D0,-1.0D0,0.0D0;                                               87P     99
190,85,87,91;                                                         89P    100
123,0.0D0,0.0D0,-1.0D0;                                               91P    101
508,2,0,9,14,0,0,0,9,10,0,0;                                          93P    102
510,89,1,1,93;                                                        95P    103
116,0.0D0,3.5D0,0.0D0,0;                                              97P    104
123,0.0D0,1.0D0,0.0D0;                                                99P    105
192,97,99,26.0D0,103;                                                101P    106
123,-1.0D0,0.0D0,0.0D0;                                              103P    107
100,0.0D0,0.0D0,0.0D0,26.0D0,0.0D0,-26.0D0,3.18397651993818D-15;     105P    108
100,0.0D0,0.0D0,0.0D0,26.0D0,0.0D0,-26.0D0,3.18397651993818D-15;     107P    109
508,4,0,9,5,1,0,0,9,15,1,0,0,9,7,0,0,0,9,16,0,0;                     109P    110
510,101,1,1,109;                                                     111P    111
116,-25.3D0,7.0D0,0.0D0,0;                                           113P    112
123,0.0D0,1.0D0,0.0D0;                                               115P    113
190,113,115,119;                                                     117P    114
123,0.0D0,0.0D0,1.0D0;                                               119P    115
508,2,0,9,16,1,0,0,9,6,1,0;                                          121P    116
100,0.0D0,0.0D0,0.0D0,1.50626581520152D-15,24.6D0,                   123P    117
-4.51879744560457D-15,-24.6D0;                                       123P    118
508,3,0,9,4,0,0,0,9,3,0,0,0,9,17,0,0;                                125P    119
510,117,2,1,121,125;                                                 127P    120
128,2,8,2,2,0,1,0,0,0,2.44059874209322D-2,2.44059874209322D-2,       129P    121
2.44059874209322D-2,.874455127521702D0,.874455127521702D0,           129P    122
.874455127521702D0,0.0D0,0.0D0,0.0D0,1.5707963267949D0,              129P    123
1.5707963267949D0,3.14159265358979D0,3.14159265358979D0,             129P    124
4.71238898038469D0,4.71238898038469D0,6.28318530717959D0,            129P    125
6.28318530717959D0,6.28318530717959D0,1.0D0,.911028601936661D0,      129P    126
1.0D0,.707106781186548D0,.644194502284313D0,.707106781186548D0,      129P    127
1.0D0,.911028601936661D0,1.0D0,.707106781186548D0,                   129P    128
.644194502284313D0,.707106781186548D0,1.0D0,.911028601936661D0,      129P    129
1.0D0,.707106781186548D0,.644194502284313D0,.707106781186548D0,      129P    130
1.0D0,.911028601936661D0,1.0D0,.707106781186548D0,                   129P    131
.644194502284313D0,.707106781186548D0,1.0D0,.911028601936661D0,      129P    132
1.0D0,3.01253163040305D-15,7.0D0,-24.6D0,2.9196605786123D-15,        129P    133
38.0671368929831D0,-23.8416252659406D0,0.0D0,58.0D0,                 129P    134
-7.105427357601D-15,24.6D0,7.0D0,-24.6D0,23.8416252659406D0,         129P    135
38.0671368929831D0,-23.8416252659406D0,7.105427357601D-15,           129P    136
58.0D0,-7.105427357601D-15,24.6D0,7.0D0,3.01253163040305D-15,        129P    137
23.8416252659406D0,38.0671368929831D0,2.9196605786123D-15,           129P    138
7.105427357601D-15,58.0D0,0.0D0,24.6D0,7.0D0,24.6D0,                 129P    139
23.8416252659406D0,38.0671368929831D0,23.8416252659406D0,            129P    140
7.105427357601D-15,58.0D0,7.105427357601D-15,                        129P    141
-3.01253163040305D-15,7.0D0,24.6D0,-2.9196605786123D-15,             129P    142
38.0671368929831D0,23.8416252659406D0,0.0D0,58.0D0,                  129P    143
7.105427357601D-15,-24.6D0,7.0D0,24.6D0,-23.8416252659406D0,         129P    144
38.0671368929831D0,23.8416252659406D0,-7.105427357601D-15,           129P    145
58.0D0,7.105427357601D-15,-24.6D0,7.0D0,-3.01253163040305D-15,       129P    146
-23.8416252659406D0,38.0671368929831D0,-2.9196605786123D-15,         129P    147
-7.105427357601D-15,58.0D0,0.0D0,-24.6D0,7.0D0,-24.6D0,              129P    148
-23.8416252659406D0,38.0671368929831D0,-23.8416252659406D0,          129P    149
-7.105427357601D-15,58.0D0,-7.105427357601D-15,                      129P    150
3.01253163040305D-15,7.0D0,-24.6D0,2.9196605786123D-15,              129P    151
38.0671368929831D0,-23.8416252659406D0,0.0D0,58.0D0,                 129P    152
-7.105427357601D-15,2.44059874209322D-2,.874455127521702D0,          129P    153
0.0D0,6.28318530717959D0;                                            129P    154
508,3,0,9,1,1,0,0,9,17,1,0,0,9,2,0,0;                                131P    155
510,129,1,1,131;                                                     133P    156
116,-13.0D0,0.0D0,0.0D0,0;                                           135P    157
123,0.0D0,-1.0D0,0.0D0;                                              137P    158
190,135,137,141;                                                     139P    159
123,0.0D0,0.0D0,-1.0D0;                                              141P    160
508,2,0,9,15,0,0,0,9,8,0,0;                                          143P    161
508,2,0,9,13,1,0,0,9,12,1,0;                                         145P    162
510,139,2,1,143,145;                                                 147P    163
514,9,23,1,45,1,67,1,83,1,95,1,111,1,127,1,133,1,147,1;              149P    164
186,149,1,0;                                                         151P    165
314,32.1568638086319D0,32.1568638086319D0,32.1568638086319D0,7HS     153P    166
chwarz;                                                              153P    167
S      1G      5D    154P    167                                        T      1
