                                                                        S      1
,,12HSP793_extern,27HNo Iges File Name specified,23HAutoDesk Inventor R1G      1
1.0,37HAutoDesk Inventor Iges Exporter R11.0,32,38,6,99,15,12HSP793_exteG      2
rn,1.0D0,2,2HMM,1,.08D0,15H20070910.120256,.01D0,10000.0D0,19HNo Author G      3
specified,25HNo Organization specified,11,0,,33HNo Application Protocol G      4
specified;                                                              G      5
     116       1       0       0       0       0       0       000010000D      1
     116       0       0       1       0                               0D      2
     123       2       0       0       0       0       0       000010200D      3
     123       0       0       1       0                               0D      4
     190       3       0       0       0       0       0       000010000D      5
     190       0       0       1       1                               0D      6
     123       4       0       0       0       0       0       000010200D      7
     123       0       0       1       0                               0D      8
     502       5       0       0       0       0       0       000010000D      9
     502       0       0       6       1                               0D     10
     110      11       0       0       0       0       0       000010000D     11
     110       0       0       1       0                               0D     12
     504      12       0       0       0       0       0       000010001D     13
     504       0       0       5       1                               0D     14
     110      17       0       0       0       0       0       000010000D     15
     110       0       0       1       0                               0D     16
     110      18       0       0       0       0       0       000010000D     17
     110       0       0       1       0                               0D     18
     110      19       0       0       0       0       0       000010000D     19
     110       0       0       1       0                               0D     20
     110      20       0       0       0       0       0       000010000D     21
     110       0       0       1       0                               0D     22
     110      21       0       0       0       0       0       000010000D     23
     110       0       0       1       0                               0D     24
     110      22       0       0       0       0       0       000010000D     25
     110       0       0       2       0                               0D     26
     110      24       0       0       0       0       0       000010000D     27
     110       0       0       1       0                               0D     28
     508      25       0       0       0       0       0       000010000D     29
     508       0       0       2       1                               0D     30
     510      27       0       0       0       0       0       000010001D     31
     510       0       0       1       1                               0D     32
     116      28       0       0       0       0       0       000010000D     33
     116       0       0       1       0                               0D     34
     123      29       0       0       0       0       0       000010200D     35
     123       0       0       1       0                               0D     36
     190      30       0       0       0       0       0       000010000D     37
     190       0       0       1       1                               0D     38
     123      31       0       0       0       0       0       000010200D     39
     123       0       0       1       0                               0D     40
     110      32       0       0       0       0       0       000010000D     41
     110       0       0       1       0                               0D     42
     110      33       0       0       0       0       0       000010000D     43
     110       0       0       1       0                               0D     44
     110      34       0       0       0       0       0       000010000D     45
     110       0       0       1       0                               0D     46
     508      35       0       0       0       0       0       000010000D     47
     508       0       0       1       1                               0D     48
     510      36       0       0       0       0       0       000010001D     49
     510       0       0       1       1                               0D     50
     116      37       0       0       0       0       0       000010000D     51
     116       0       0       1       0                               0D     52
     123      38       0       0       0       0       0       000010200D     53
     123       0       0       1       0                               0D     54
     190      39       0       0       0       0       0       000010000D     55
     190       0       0       1       1                               0D     56
     123      40       0       0       0       0       0       000010200D     57
     123       0       0       1       0                               0D     58
     110      41       0       0       0       0       0       000010000D     59
     110       0       0       1       0                               0D     60
     110      42       0       0       0       0       0       000010000D     61
     110       0       0       1       0                               0D     62
     508      43       0       0       0       0       0       000010000D     63
     508       0       0       1       1                               0D     64
     510      44       0       0       0       0       0       000010001D     65
     510       0       0       1       1                               0D     66
     116      45       0       0       0       0       0       000010000D     67
     116       0       0       1       0                               0D     68
     123      46       0       0       0       0       0       000010200D     69
     123       0       0       1       0                               0D     70
     190      47       0       0       0       0       0       000010000D     71
     190       0       0       1       1                               0D     72
     123      48       0       0       0       0       0       000010200D     73
     123       0       0       1       0                               0D     74
     110      49       0       0       0       0       0       000010000D     75
     110       0       0       1       0                               0D     76
     110      50       0       0       0       0       0       000010000D     77
     110       0       0       1       0                               0D     78
     508      51       0       0       0       0       0       000010000D     79
     508       0       0       1       1                               0D     80
     510      52       0       0       0       0       0       000010001D     81
     510       0       0       1       1                               0D     82
     116      53       0       0       0       0       0       000010000D     83
     116       0       0       1       0                               0D     84
     123      54       0       0       0       0       0       000010200D     85
     123       0       0       1       0                               0D     86
     190      55       0       0       0       0       0       000010000D     87
     190       0       0       1       1                               0D     88
     123      56       0       0       0       0       0       000010200D     89
     123       0       0       1       0                               0D     90
     110      57       0       0       0       0       0       000010000D     91
     110       0       0       1       0                               0D     92
     110      58       0       0       0       0       0       000010000D     93
     110       0       0       2       0                               0D     94
     508      60       0       0       0       0       0       000010000D     95
     508       0       0       1       1                               0D     96
     510      61       0       0       0       0       0       000010001D     97
     510       0       0       1       1                               0D     98
     116      62       0       0       0       0       0       000010000D     99
     116       0       0       1       0                               0D    100
     123      63       0       0       0       0       0       000010200D    101
     123       0       0       1       0                               0D    102
     190      64       0       0       0       0       0       000010000D    103
     190       0       0       1       1                               0D    104
     123      65       0       0       0       0       0       000010200D    105
     123       0       0       1       0                               0D    106
     110      66       0       0       0       0       0       000010000D    107
     110       0       0       2       0                               0D    108
     110      68       0       0       0       0       0       000010000D    109
     110       0       0       2       0                               0D    110
     508      70       0       0       0       0       0       000010000D    111
     508       0       0       1       1                               0D    112
     510      71       0       0       0       0       0       000010001D    113
     510       0       0       1       1                               0D    114
     116      72       0       0       0       0       0       000010000D    115
     116       0       0       1       0                               0D    116
     123      73       0       0       0       0       0       000010200D    117
     123       0       0       1       0                               0D    118
     190      74       0       0       0       0       0       000010000D    119
     190       0       0       1       1                               0D    120
     123      75       0       0       0       0       0       000010200D    121
     123       0       0       1       0                               0D    122
     110      76       0       0       0       0       0       000010000D    123
     110       0       0       1       0                               0D    124
     110      77       0       0       0       0       0       000010000D    125
     110       0       0       1       0                               0D    126
     508      78       0       0       0       0       0       000010000D    127
     508       0       0       1       1                               0D    128
     510      79       0       0       0       0       0       000010001D    129
     510       0       0       1       1                               0D    130
     116      80       0       0       0       0       0       000010000D    131
     116       0       0       1       0                               0D    132
     123      81       0       0       0       0       0       000010200D    133
     123       0       0       1       0                               0D    134
     190      82       0       0       0       0       0       000010000D    135
     190       0       0       1       1                               0D    136
     123      83       0       0       0       0       0       000010200D    137
     123       0       0       1       0                               0D    138
     110      84       0       0       0       0       0       000010000D    139
     110       0       0       1       0                               0D    140
     110      85       0       0       0       0       0       000010000D    141
     110       0       0       1       0                               0D    142
     508      86       0       0       0       0       0       000010000D    143
     508       0       0       1       1                               0D    144
     510      87       0       0       0       0       0       000010001D    145
     510       0       0       1       1                               0D    146
     116      88       0       0       0       0       0       000010000D    147
     116       0       0       1       0                               0D    148
     123      89       0       0       0       0       0       000010200D    149
     123       0       0       1       0                               0D    150
     190      90       0       0       0       0       0       000010000D    151
     190       0       0       1       1                               0D    152
     123      91       0       0       0       0       0       000010200D    153
     123       0       0       1       0                               0D    154
     110      92       0       0       0       0       0       000010000D    155
     110       0       0       1       0                               0D    156
     508      93       0       0       0       0       0       000010000D    157
     508       0       0       1       1                               0D    158
     510      94       0       0       0       0       0       000010001D    159
     510       0       0       1       1                               0D    160
     116      95       0       0       0       0       0       000010000D    161
     116       0       0       1       0                               0D    162
     123      96       0       0       0       0       0       000010200D    163
     123       0       0       1       0                               0D    164
     190      97       0       0       0       0       0       000010000D    165
     190       0       0       1       1                               0D    166
     123      98       0       0       0       0       0       000010200D    167
     123       0       0       1       0                               0D    168
     508      99       0       0       0       0       0       000010000D    169
     508       0       0       2       1                               0D    170
     510     101       0       0       0       0       0       000010001D    171
     510       0       0       1       1                               0D    172
     514     102       0       0       0       0       0       000010000D    173
     514       0       0       1       1                               0D    174
     186     103       0       0       1       0       0       000000000D    175
     186       0    -177       1       0                               0D    176
     314     104       0       0       0       0       0       000000200D    177
     314       0       0       2       0                               0D    178
116,3.20923843055709D-16,-.644444444444445D0,-.5D0,0;                  1P      1
123,0.0D0,0.0D0,-1.0D0;                                                3P      2
190,1,3,7;                                                             5P      3
123,-1.0D0,0.0D0,0.0D0;                                                7P      4
502,16,-4.1D0,-2.4D0,-.5D0,-3.7D0,-2.4D0,-.5D0,-4.1D0,0.0D0,           9P      5
-.5D0,4.1D0,0.0D0,-.5D0,4.1D0,-2.4D0,-.5D0,3.7D0,-2.4D0,-.5D0,         9P      6
3.7D0,-.400000000000001D0,-.5D0,-3.7D0,-.400000000000001D0,            9P      7
-.5D0,-4.1D0,0.0D0,.5D0,4.1D0,0.0D0,.5D0,4.1D0,-2.4D0,.5D0,            9P      8
3.7D0,-2.4D0,.5D0,3.7D0,-.400000000000001D0,.5D0,-3.7D0,               9P      9
-.400000000000001D0,.5D0,-3.7D0,-2.4D0,.5D0,-4.1D0,-2.4D0,.5D0;        9P     10
110,-4.1D0,-2.4D0,-.5D0,-3.7D0,-2.4D0,-.5D0;                          11P     11
504,24,11,9,1,9,2,15,9,3,9,1,17,9,4,9,3,19,9,5,9,4,21,9,6,9,5,        13P     12
23,9,7,9,6,25,9,8,9,7,27,9,2,9,8,41,9,9,9,10,43,9,10,9,4,45,9,9,      13P     13
9,3,59,9,10,9,11,61,9,11,9,5,75,9,11,9,12,77,9,12,9,6,91,9,12,9,      13P     14
13,93,9,13,9,7,107,9,13,9,14,109,9,14,9,8,123,9,14,9,15,125,9,        13P     15
15,9,2,139,9,15,9,16,141,9,1,9,16,155,9,16,9,9;                       13P     16
110,-4.1D0,0.0D0,-.5D0,-4.1D0,-2.4D0,-.5D0;                           15P     17
110,4.1D0,0.0D0,-.5D0,-4.1D0,0.0D0,-.5D0;                             17P     18
110,4.1D0,-2.4D0,-.5D0,4.1D0,0.0D0,-.5D0;                             19P     19
110,3.7D0,-2.4D0,-.5D0,4.1D0,-2.4D0,-.5D0;                            21P     20
110,3.7D0,-.400000000000001D0,-.5D0,3.7D0,-2.4D0,-.5D0;               23P     21
110,-3.7D0,-.400000000000001D0,-.5D0,3.7D0,-.400000000000001D0,       25P     22
-.5D0;                                                                25P     23
110,-3.7D0,-2.4D0,-.5D0,-3.7D0,-.400000000000001D0,-.5D0;             27P     24
508,8,0,13,1,0,0,0,13,2,0,0,0,13,3,0,0,0,13,4,0,0,0,13,5,0,0,0,       29P     25
13,6,0,0,0,13,7,0,0,0,13,8,0,0;                                       29P     26
510,5,1,1,29;                                                         31P     27
116,-4.1D0,0.0D0,0.0D0,0;                                             33P     28
123,0.0D0,1.0D0,0.0D0;                                                35P     29
190,33,35,39;                                                         37P     30
123,0.0D0,0.0D0,1.0D0;                                                39P     31
110,-4.1D0,0.0D0,.5D0,4.1D0,0.0D0,.5D0;                               41P     32
110,4.1D0,0.0D0,.5D0,4.1D0,0.0D0,-.5D0;                               43P     33
110,-4.1D0,0.0D0,.5D0,-4.1D0,0.0D0,-.5D0;                             45P     34
508,4,0,13,9,1,0,0,13,10,1,0,0,13,3,1,0,0,13,11,0,0;                  47P     35
510,37,1,1,47;                                                        49P     36
116,4.1D0,0.0D0,0.0D0,0;                                              51P     37
123,1.0D0,0.0D0,0.0D0;                                                53P     38
190,51,53,57;                                                         55P     39
123,0.0D0,0.0D0,-1.0D0;                                               57P     40
110,4.1D0,0.0D0,.5D0,4.1D0,-2.4D0,.5D0;                               59P     41
110,4.1D0,-2.4D0,.5D0,4.1D0,-2.4D0,-.5D0;                             61P     42
508,4,0,13,12,1,0,0,13,13,1,0,0,13,4,1,0,0,13,10,0,0;                 63P     43
510,55,1,1,63;                                                        65P     44
116,4.1D0,-2.4D0,0.0D0,0;                                             67P     45
123,0.0D0,-1.0D0,0.0D0;                                               69P     46
190,67,69,73;                                                         71P     47
123,0.0D0,0.0D0,-1.0D0;                                               73P     48
110,4.1D0,-2.4D0,.5D0,3.7D0,-2.4D0,.5D0;                              75P     49
110,3.7D0,-2.4D0,.5D0,3.7D0,-2.4D0,-.5D0;                             77P     50
508,4,0,13,14,1,0,0,13,15,1,0,0,13,5,1,0,0,13,13,0,0;                 79P     51
510,71,1,1,79;                                                        81P     52
116,3.7D0,-2.4D0,0.0D0,0;                                             83P     53
123,-1.0D0,0.0D0,0.0D0;                                               85P     54
190,83,85,89;                                                         87P     55
123,0.0D0,0.0D0,1.0D0;                                                89P     56
110,3.7D0,-2.4D0,.5D0,3.7D0,-.400000000000001D0,.5D0;                 91P     57
110,3.7D0,-.400000000000001D0,.5D0,3.7D0,-.400000000000001D0,         93P     58
-.5D0;                                                                93P     59
508,4,0,13,16,1,0,0,13,17,1,0,0,13,6,1,0,0,13,15,0,0;                 95P     60
510,87,1,1,95;                                                        97P     61
116,3.7D0,-.400000000000001D0,0.0D0,0;                                99P     62
123,0.0D0,-1.0D0,0.0D0;                                              101P     63
190,99,101,105;                                                      103P     64
123,0.0D0,0.0D0,-1.0D0;                                              105P     65
110,3.7D0,-.400000000000001D0,.5D0,-3.7D0,-.400000000000001D0,       107P     66
.5D0;                                                                107P     67
110,-3.7D0,-.400000000000001D0,.5D0,-3.7D0,-.400000000000001D0,      109P     68
-.5D0;                                                               109P     69
508,4,0,13,18,1,0,0,13,19,1,0,0,13,7,1,0,0,13,17,0,0;                111P     70
510,103,1,1,111;                                                     113P     71
116,-3.7D0,-.400000000000001D0,0.0D0,0;                              115P     72
123,1.0D0,0.0D0,0.0D0;                                               117P     73
190,115,117,121;                                                     119P     74
123,0.0D0,0.0D0,-1.0D0;                                              121P     75
110,-3.7D0,-.400000000000001D0,.5D0,-3.7D0,-2.4D0,.5D0;              123P     76
110,-3.7D0,-2.4D0,.5D0,-3.7D0,-2.4D0,-.5D0;                          125P     77
508,4,0,13,20,1,0,0,13,21,1,0,0,13,8,1,0,0,13,19,0,0;                127P     78
510,119,1,1,127;                                                     129P     79
116,-3.7D0,-2.4D0,0.0D0,0;                                           131P     80
123,0.0D0,-1.0D0,0.0D0;                                              133P     81
190,131,133,137;                                                     135P     82
123,0.0D0,0.0D0,-1.0D0;                                              137P     83
110,-3.7D0,-2.4D0,.5D0,-4.1D0,-2.4D0,.5D0;                           139P     84
110,-4.1D0,-2.4D0,-.5D0,-4.1D0,-2.4D0,.5D0;                          141P     85
508,4,0,13,22,1,0,0,13,23,0,0,0,13,1,1,0,0,13,21,0,0;                143P     86
510,135,1,1,143;                                                     145P     87
116,-4.1D0,-2.4D0,0.0D0,0;                                           147P     88
123,-1.0D0,0.0D0,0.0D0;                                              149P     89
190,147,149,153;                                                     151P     90
123,0.0D0,0.0D0,1.0D0;                                               153P     91
110,-4.1D0,-2.4D0,.5D0,-4.1D0,0.0D0,.5D0;                            155P     92
508,4,0,13,24,1,0,0,13,11,1,0,0,13,2,1,0,0,13,23,1,0;                157P     93
510,151,1,1,157;                                                     159P     94
116,4.08924137136466D-16,-.644444444444445D0,.5D0,0;                 161P     95
123,0.0D0,0.0D0,1.0D0;                                               163P     96
190,161,163,167;                                                     165P     97
123,1.0D0,0.0D0,0.0D0;                                               167P     98
508,8,0,13,9,0,0,0,13,24,0,0,0,13,22,0,0,0,13,20,0,0,0,13,18,0,      169P     99
0,0,13,16,0,0,0,13,14,0,0,0,13,12,0,0;                               169P    100
510,165,1,1,169;                                                     171P    101
514,10,31,1,49,1,65,1,81,1,97,1,113,1,129,1,145,1,159,1,171,1;       173P    102
186,173,1,0;                                                         175P    103
314,84.7058832645416D0,83.9215695858002D0,83.9215695858002D0,        177P    104
27HMetall-AL-6061 (gleichmäß.);                                      177P    105
S      1G      5D    178P    105                                        T      1
