ISO-10303-21;
HEADER;
/****************************************************************
 * Generated by software with PDElib inside                    *
 * PDElib Version v51a, created Wed 07/06/2011                  *
 * ITI Transcendata (http://www.transcendata.com/)              *
 ****************************************************************/
FILE_DESCRIPTION((''),'2;1');
FILE_NAME('U:\\Paletti Norm\\Paletti Artikel\\SZ\\SZ0233V-A.stp','2013-08-21T14:03:31',('janine behrens'),(''),'Autodesk Inventor 2012','Autodesk Inventor 2012','');
FILE_SCHEMA(('AUTOMOTIVE_DESIGN { 1 0 10303 214 1 1 1 1 }'));
ENDSEC;
DATA;
#5=APPLICATION_CONTEXT('automotive design');
#6=APPLICATION_PROTOCOL_DEFINITION('International Standard','automotive_design',2001,#5);
#7=PRODUCT_CONTEXT('',#5,'mechanical');
#8=PRODUCT('SZ0233V-A','SZ0233V-A',$,(#7));
#9=PRODUCT_RELATED_PRODUCT_CATEGORY('part',$,(#8));
#10=PRODUCT_DEFINITION_FORMATION('',$,#8);
#11=PRODUCT_DEFINITION_CONTEXT('part definition',#5,'design');
#12=PRODUCT_DEFINITION('',$,#10,#11);
#18=(NAMED_UNIT(*)PLANE_ANGLE_UNIT()SI_UNIT($,.RADIAN.));
#19=DIMENSIONAL_EXPONENTS(0.0,0.0,0.0,0.0,0.0,0.0,0.0);
#20=PLANE_ANGLE_MEASURE_WITH_UNIT(PLANE_ANGLE_MEASURE(0.0174532925),#18);
#24=(CONVERSION_BASED_UNIT('DEGREE',#20)NAMED_UNIT(#19)PLANE_ANGLE_UNIT());
#28=(NAMED_UNIT(*)SI_UNIT($,.STERADIAN.)SOLID_ANGLE_UNIT());
#32=(LENGTH_UNIT()NAMED_UNIT(*)SI_UNIT(.MILLI.,.METRE.));
#34=UNCERTAINTY_MEASURE_WITH_UNIT(LENGTH_MEASURE(0.01),#32,'DISTANCE_ACCURACY_VALUE','');
#36=(GEOMETRIC_REPRESENTATION_CONTEXT(3)GLOBAL_UNCERTAINTY_ASSIGNED_CONTEXT((#34))GLOBAL_UNIT_ASSIGNED_CONTEXT((#24,#28,#32))REPRESENTATION_CONTEXT('None','None'));
#37=AXIS2_PLACEMENT_3D('',#38,#39,#40);
#38=CARTESIAN_POINT('',(0.0,0.0,0.0));
#39=DIRECTION('',(0.0,0.0,1.0));
#40=DIRECTION('',(1.0,0.0,0.0));
#41=SHAPE_REPRESENTATION('',(#37),#36);
#42=PRODUCT_DEFINITION_SHAPE('','',#12);
#43=SHAPE_DEFINITION_REPRESENTATION(#42,#41);
#49=(NAMED_UNIT(*)PLANE_ANGLE_UNIT()SI_UNIT($,.RADIAN.));
#50=DIMENSIONAL_EXPONENTS(0.0,0.0,0.0,0.0,0.0,0.0,0.0);
#51=PLANE_ANGLE_MEASURE_WITH_UNIT(PLANE_ANGLE_MEASURE(0.0174532925),#49);
#55=(CONVERSION_BASED_UNIT('DEGREE',#51)NAMED_UNIT(#50)PLANE_ANGLE_UNIT());
#59=(NAMED_UNIT(*)SI_UNIT($,.STERADIAN.)SOLID_ANGLE_UNIT());
#63=(LENGTH_UNIT()NAMED_UNIT(*)SI_UNIT(.MILLI.,.METRE.));
#65=UNCERTAINTY_MEASURE_WITH_UNIT(LENGTH_MEASURE(0.000001),#63,'DISTANCE_ACCURACY_VALUE','');
#67=(GEOMETRIC_REPRESENTATION_CONTEXT(3)GLOBAL_UNCERTAINTY_ASSIGNED_CONTEXT((#65))GLOBAL_UNIT_ASSIGNED_CONTEXT((#55,#59,#63))REPRESENTATION_CONTEXT('','3D'));
#68=CARTESIAN_POINT('',(20.0,-18.999999999999989,14.0));
#69=DIRECTION('',(1.177569E-016,-0.707106781186547,0.707106781186548));
#70=DIRECTION('',(1.0,0.0,0.0));
#71=AXIS2_PLACEMENT_3D('',#68,#69,#70);
#72=PLANE('',#71);
#73=CARTESIAN_POINT('',(36.5,-19.999999999999986,13.0));
#74=VERTEX_POINT('',#73);
#75=CARTESIAN_POINT('',(36.5,-17.999999999999986,15.0));
#76=VERTEX_POINT('',#75);
#77=CARTESIAN_POINT('',(36.5,-19.999999999999986,13.0));
#78=DIRECTION('',(0.0,0.707106781186547,0.707106781186547));
#79=VECTOR('',#78,2.82842712474619);
#80=LINE('',#77,#79);
#81=EDGE_CURVE('',#74,#76,#80,.T.);
#82=ORIENTED_EDGE('',*,*,#81,.T.);
#83=CARTESIAN_POINT('',(-36.5,-18.0,15.0));
#84=VERTEX_POINT('',#83);
#85=CARTESIAN_POINT('',(36.5,-17.999999999999986,15.0));
#86=DIRECTION('',(-1.0,0.0,0.0));
#87=VECTOR('',#86,73.0);
#88=LINE('',#85,#87);
#89=EDGE_CURVE('',#76,#84,#88,.T.);
#90=ORIENTED_EDGE('',*,*,#89,.T.);
#91=CARTESIAN_POINT('',(-36.5,-20.0,13.0));
#92=VERTEX_POINT('',#91);
#93=CARTESIAN_POINT('',(-36.5,-18.0,15.0));
#94=DIRECTION('',(0.0,-0.707106781186548,-0.707106781186547));
#95=VECTOR('',#94,2.828427124746193);
#96=LINE('',#93,#95);
#97=EDGE_CURVE('',#84,#92,#96,.T.);
#98=ORIENTED_EDGE('',*,*,#97,.T.);
#99=CARTESIAN_POINT('',(-36.5,-20.000000000000004,13.0));
#100=DIRECTION('',(1.0,0.0,0.0));
#101=VECTOR('',#100,73.0);
#102=LINE('',#99,#101);
#103=EDGE_CURVE('',#92,#74,#102,.T.);
#104=ORIENTED_EDGE('',*,*,#103,.T.);
#105=EDGE_LOOP('',(#82,#90,#98,#104));
#106=FACE_OUTER_BOUND('',#105,.T.);
#107=ADVANCED_FACE('',(#106),#72,.T.);
#108=CARTESIAN_POINT('',(36.5,-16.499999999999986,14.0));
#109=DIRECTION('',(0.0,0.0,-1.0));
#110=DIRECTION('',(0.707106781186548,-0.707106781186547,0.0));
#111=AXIS2_PLACEMENT_3D('',#108,#109,#110);
#112=CONICAL_SURFACE('',#111,2.499999999999998,45.000000000000028);
#113=CARTESIAN_POINT('',(40.0,-16.499999999999986,13.0));
#114=VERTEX_POINT('',#113);
#115=CARTESIAN_POINT('',(37.999999999999993,-16.499999999999986,15.0));
#116=VERTEX_POINT('',#115);
#117=CARTESIAN_POINT('',(40.0,-16.499999999999986,13.0));
#118=DIRECTION('',(-0.707106781186549,0.0,0.707106781186546));
#119=VECTOR('',#118,2.828427124746194);
#120=LINE('',#117,#119);
#121=EDGE_CURVE('',#114,#116,#120,.T.);
#122=ORIENTED_EDGE('',*,*,#121,.T.);
#123=CARTESIAN_POINT('',(36.5,-16.499999999999986,15.0));
#124=DIRECTION('',(0.0,0.0,-1.0));
#125=DIRECTION('',(0.707106781186548,-0.707106781186547,0.0));
#126=AXIS2_PLACEMENT_3D('',#123,#124,#125);
#127=CIRCLE('',#126,1.499999999999998);
#128=EDGE_CURVE('',#116,#76,#127,.T.);
#129=ORIENTED_EDGE('',*,*,#128,.T.);
#130=ORIENTED_EDGE('',*,*,#81,.F.);
#131=CARTESIAN_POINT('',(36.5,-16.499999999999986,13.0));
#132=DIRECTION('',(0.0,0.0,1.0));
#133=DIRECTION('',(0.707106781186548,-0.707106781186547,0.0));
#134=AXIS2_PLACEMENT_3D('',#131,#132,#133);
#135=CIRCLE('',#134,3.5);
#136=EDGE_CURVE('',#74,#114,#135,.T.);
#137=ORIENTED_EDGE('',*,*,#136,.T.);
#138=EDGE_LOOP('',(#122,#129,#130,#137));
#139=FACE_OUTER_BOUND('',#138,.T.);
#140=ADVANCED_FACE('',(#139),#112,.T.);
#141=CARTESIAN_POINT('',(-36.5,-16.5,14.0));
#142=DIRECTION('',(0.0,0.0,-1.0));
#143=DIRECTION('',(-0.707106781186547,-0.707106781186548,0.0));
#144=AXIS2_PLACEMENT_3D('',#141,#142,#143);
#145=CONICAL_SURFACE('',#144,2.5,45.000000000000028);
#146=CARTESIAN_POINT('',(-38.0,-16.5,15.0));
#147=VERTEX_POINT('',#146);
#148=CARTESIAN_POINT('',(-40.0,-16.5,13.0));
#149=VERTEX_POINT('',#148);
#150=CARTESIAN_POINT('',(-38.0,-16.5,15.0));
#151=DIRECTION('',(-0.707106781186547,0.0,-0.707106781186547));
#152=VECTOR('',#151,2.82842712474619);
#153=LINE('',#150,#152);
#154=EDGE_CURVE('',#147,#149,#153,.T.);
#155=ORIENTED_EDGE('',*,*,#154,.T.);
#156=CARTESIAN_POINT('',(-36.5,-16.5,13.0));
#157=DIRECTION('',(0.0,0.0,1.0));
#158=DIRECTION('',(-0.707106781186547,-0.707106781186548,0.0));
#159=AXIS2_PLACEMENT_3D('',#156,#157,#158);
#160=CIRCLE('',#159,3.5);
#161=EDGE_CURVE('',#149,#92,#160,.T.);
#162=ORIENTED_EDGE('',*,*,#161,.T.);
#163=ORIENTED_EDGE('',*,*,#97,.F.);
#164=CARTESIAN_POINT('',(-36.5,-16.5,15.0));
#165=DIRECTION('',(0.0,0.0,-1.0));
#166=DIRECTION('',(-0.707106781186547,-0.707106781186548,0.0));
#167=AXIS2_PLACEMENT_3D('',#164,#165,#166);
#168=CIRCLE('',#167,1.499999999999998);
#169=EDGE_CURVE('',#84,#147,#168,.T.);
#170=ORIENTED_EDGE('',*,*,#169,.T.);
#171=EDGE_LOOP('',(#155,#162,#163,#170));
#172=FACE_OUTER_BOUND('',#171,.T.);
#173=ADVANCED_FACE('',(#172),#145,.T.);
#174=CARTESIAN_POINT('',(39.0,9.999999999999996,14.0));
#175=DIRECTION('',(0.707106781186547,0.0,0.707106781186548));
#176=DIRECTION('',(0.707106781186548,0.0,-0.707106781186547));
#177=AXIS2_PLACEMENT_3D('',#174,#175,#176);
#178=PLANE('',#177);
#179=CARTESIAN_POINT('',(40.0,16.499999999999989,13.0));
#180=VERTEX_POINT('',#179);
#181=CARTESIAN_POINT('',(38.0,16.499999999999989,15.0));
#182=VERTEX_POINT('',#181);
#183=CARTESIAN_POINT('',(40.0,16.499999999999989,13.0));
#184=DIRECTION('',(-0.707106781186547,0.0,0.707106781186547));
#185=VECTOR('',#184,2.82842712474619);
#186=LINE('',#183,#185);
#187=EDGE_CURVE('',#180,#182,#186,.T.);
#188=ORIENTED_EDGE('',*,*,#187,.T.);
#189=CARTESIAN_POINT('',(38.0,16.499999999999989,15.0));
#190=DIRECTION('',(0.0,-1.0,0.0));
#191=VECTOR('',#190,32.999999999999972);
#192=LINE('',#189,#191);
#193=EDGE_CURVE('',#182,#116,#192,.T.);
#194=ORIENTED_EDGE('',*,*,#193,.T.);
#195=ORIENTED_EDGE('',*,*,#121,.F.);
#196=CARTESIAN_POINT('',(40.0,-16.499999999999986,13.0));
#197=DIRECTION('',(0.0,1.0,0.0));
#198=VECTOR('',#197,32.999999999999972);
#199=LINE('',#196,#198);
#200=EDGE_CURVE('',#114,#180,#199,.T.);
#201=ORIENTED_EDGE('',*,*,#200,.T.);
#202=EDGE_LOOP('',(#188,#194,#195,#201));
#203=FACE_OUTER_BOUND('',#202,.T.);
#204=ADVANCED_FACE('',(#203),#178,.T.);
#205=CARTESIAN_POINT('',(-39.0,-9.999999999999998,14.0));
#206=DIRECTION('',(-0.707106781186547,0.0,0.707106781186548));
#207=DIRECTION('',(0.707106781186548,0.0,0.707106781186547));
#208=AXIS2_PLACEMENT_3D('',#205,#206,#207);
#209=PLANE('',#208);
#210=CARTESIAN_POINT('',(-38.0,16.5,15.0));
#211=VERTEX_POINT('',#210);
#212=CARTESIAN_POINT('',(-40.0,16.5,13.0));
#213=VERTEX_POINT('',#212);
#214=CARTESIAN_POINT('',(-38.0,16.5,15.0));
#215=DIRECTION('',(-0.707106781186547,0.0,-0.707106781186547));
#216=VECTOR('',#215,2.82842712474619);
#217=LINE('',#214,#216);
#218=EDGE_CURVE('',#211,#213,#217,.T.);
#219=ORIENTED_EDGE('',*,*,#218,.T.);
#220=CARTESIAN_POINT('',(-40.0,16.5,13.0));
#221=DIRECTION('',(0.0,-1.0,0.0));
#222=VECTOR('',#221,33.0);
#223=LINE('',#220,#222);
#224=EDGE_CURVE('',#213,#149,#223,.T.);
#225=ORIENTED_EDGE('',*,*,#224,.T.);
#226=ORIENTED_EDGE('',*,*,#154,.F.);
#227=CARTESIAN_POINT('',(-38.0,-16.5,15.0));
#228=DIRECTION('',(0.0,1.0,0.0));
#229=VECTOR('',#228,33.0);
#230=LINE('',#227,#229);
#231=EDGE_CURVE('',#147,#211,#230,.T.);
#232=ORIENTED_EDGE('',*,*,#231,.T.);
#233=EDGE_LOOP('',(#219,#225,#226,#232));
#234=FACE_OUTER_BOUND('',#233,.T.);
#235=ADVANCED_FACE('',(#234),#209,.T.);
#236=CARTESIAN_POINT('',(36.5,16.499999999999989,14.0));
#237=DIRECTION('',(0.0,0.0,-1.0));
#238=DIRECTION('',(0.707106781186547,0.707106781186548,0.0));
#239=AXIS2_PLACEMENT_3D('',#236,#237,#238);
#240=CONICAL_SURFACE('',#239,2.5,45.000000000000028);
#241=CARTESIAN_POINT('',(36.5,19.999999999999989,13.0));
#242=VERTEX_POINT('',#241);
#243=CARTESIAN_POINT('',(36.5,17.999999999999986,15.0));
#244=VERTEX_POINT('',#243);
#245=CARTESIAN_POINT('',(36.5,19.999999999999989,13.0));
#246=DIRECTION('',(0.0,-0.707106781186548,0.707106781186547));
#247=VECTOR('',#246,2.828427124746193);
#248=LINE('',#245,#247);
#249=EDGE_CURVE('',#242,#244,#248,.T.);
#250=ORIENTED_EDGE('',*,*,#249,.T.);
#251=CARTESIAN_POINT('',(36.5,16.499999999999989,15.0));
#252=DIRECTION('',(0.0,0.0,-1.0));
#253=DIRECTION('',(0.707106781186547,0.707106781186548,0.0));
#254=AXIS2_PLACEMENT_3D('',#251,#252,#253);
#255=CIRCLE('',#254,1.499999999999998);
#256=EDGE_CURVE('',#244,#182,#255,.T.);
#257=ORIENTED_EDGE('',*,*,#256,.T.);
#258=ORIENTED_EDGE('',*,*,#187,.F.);
#259=CARTESIAN_POINT('',(36.5,16.499999999999989,13.0));
#260=DIRECTION('',(0.0,0.0,1.0));
#261=DIRECTION('',(0.707106781186547,0.707106781186548,0.0));
#262=AXIS2_PLACEMENT_3D('',#259,#260,#261);
#263=CIRCLE('',#262,3.5);
#264=EDGE_CURVE('',#180,#242,#263,.T.);
#265=ORIENTED_EDGE('',*,*,#264,.T.);
#266=EDGE_LOOP('',(#250,#257,#258,#265));
#267=FACE_OUTER_BOUND('',#266,.T.);
#268=ADVANCED_FACE('',(#267),#240,.T.);
#269=CARTESIAN_POINT('',(-36.5,16.5,14.0));
#270=DIRECTION('',(0.0,0.0,-1.0));
#271=DIRECTION('',(-0.707106781186548,0.707106781186547,0.0));
#272=AXIS2_PLACEMENT_3D('',#269,#270,#271);
#273=CONICAL_SURFACE('',#272,2.499999999999999,45.000000000000028);
#274=CARTESIAN_POINT('',(-36.5,17.999999999999996,15.0));
#275=VERTEX_POINT('',#274);
#276=CARTESIAN_POINT('',(-36.5,20.0,13.0));
#277=VERTEX_POINT('',#276);
#278=CARTESIAN_POINT('',(-36.5,17.999999999999996,15.0));
#279=DIRECTION('',(0.0,0.707106781186548,-0.707106781186547));
#280=VECTOR('',#279,2.828427124746193);
#281=LINE('',#278,#280);
#282=EDGE_CURVE('',#275,#277,#281,.T.);
#283=ORIENTED_EDGE('',*,*,#282,.T.);
#284=CARTESIAN_POINT('',(-36.5,16.5,13.0));
#285=DIRECTION('',(0.0,0.0,1.0));
#286=DIRECTION('',(-0.707106781186548,0.707106781186547,0.0));
#287=AXIS2_PLACEMENT_3D('',#284,#285,#286);
#288=CIRCLE('',#287,3.5);
#289=EDGE_CURVE('',#277,#213,#288,.T.);
#290=ORIENTED_EDGE('',*,*,#289,.T.);
#291=ORIENTED_EDGE('',*,*,#218,.F.);
#292=CARTESIAN_POINT('',(-36.5,16.5,15.0));
#293=DIRECTION('',(0.0,0.0,-1.0));
#294=DIRECTION('',(-0.707106781186548,0.707106781186547,0.0));
#295=AXIS2_PLACEMENT_3D('',#292,#293,#294);
#296=CIRCLE('',#295,1.499999999999998);
#297=EDGE_CURVE('',#211,#275,#296,.T.);
#298=ORIENTED_EDGE('',*,*,#297,.T.);
#299=EDGE_LOOP('',(#283,#290,#291,#298));
#300=FACE_OUTER_BOUND('',#299,.T.);
#301=ADVANCED_FACE('',(#300),#273,.T.);
#302=CARTESIAN_POINT('',(-19.999999999999996,19.0,14.0));
#303=DIRECTION('',(9.813078E-017,0.707106781186548,0.707106781186548));
#304=DIRECTION('',(1.0,0.0,0.0));
#305=AXIS2_PLACEMENT_3D('',#302,#303,#304);
#306=PLANE('',#305);
#307=ORIENTED_EDGE('',*,*,#249,.F.);
#308=CARTESIAN_POINT('',(36.5,19.999999999999989,13.0));
#309=DIRECTION('',(-1.0,0.0,0.0));
#310=VECTOR('',#309,73.0);
#311=LINE('',#308,#310);
#312=EDGE_CURVE('',#242,#277,#311,.T.);
#313=ORIENTED_EDGE('',*,*,#312,.T.);
#314=ORIENTED_EDGE('',*,*,#282,.F.);
#315=CARTESIAN_POINT('',(-36.5,18.000000000000004,15.0));
#316=DIRECTION('',(1.0,0.0,0.0));
#317=VECTOR('',#316,73.0);
#318=LINE('',#315,#317);
#319=EDGE_CURVE('',#275,#244,#318,.T.);
#320=ORIENTED_EDGE('',*,*,#319,.T.);
#321=EDGE_LOOP('',(#307,#313,#314,#320));
#322=FACE_OUTER_BOUND('',#321,.T.);
#323=ADVANCED_FACE('',(#322),#306,.T.);
#324=CARTESIAN_POINT('',(36.5,16.499999999999989,0.0));
#325=DIRECTION('',(0.0,0.0,1.0));
#326=DIRECTION('',(0.707106781186547,0.707106781186548,0.0));
#327=AXIS2_PLACEMENT_3D('',#324,#325,#326);
#328=CYLINDRICAL_SURFACE('',#327,3.5);
#329=ORIENTED_EDGE('',*,*,#264,.F.);
#330=CARTESIAN_POINT('',(40.0,16.499999999999989,0.0));
#331=VERTEX_POINT('',#330);
#332=CARTESIAN_POINT('',(40.0,16.499999999999989,13.0));
#333=DIRECTION('',(0.0,0.0,-1.0));
#334=VECTOR('',#333,13.0);
#335=LINE('',#332,#334);
#336=EDGE_CURVE('',#180,#331,#335,.T.);
#337=ORIENTED_EDGE('',*,*,#336,.T.);
#338=CARTESIAN_POINT('',(36.5,19.999999999999989,0.0));
#339=VERTEX_POINT('',#338);
#340=CARTESIAN_POINT('',(36.5,16.499999999999989,0.0));
#341=DIRECTION('',(0.0,0.0,1.0));
#342=DIRECTION('',(0.707106781186547,0.707106781186548,0.0));
#343=AXIS2_PLACEMENT_3D('',#340,#341,#342);
#344=CIRCLE('',#343,3.5);
#345=EDGE_CURVE('',#331,#339,#344,.T.);
#346=ORIENTED_EDGE('',*,*,#345,.T.);
#347=CARTESIAN_POINT('',(36.5,19.999999999999989,0.0));
#348=DIRECTION('',(0.0,0.0,1.0));
#349=VECTOR('',#348,13.0);
#350=LINE('',#347,#349);
#351=EDGE_CURVE('',#339,#242,#350,.T.);
#352=ORIENTED_EDGE('',*,*,#351,.T.);
#353=EDGE_LOOP('',(#329,#337,#346,#352));
#354=FACE_OUTER_BOUND('',#353,.T.);
#355=ADVANCED_FACE('',(#354),#328,.T.);
#356=CARTESIAN_POINT('',(40.0,19.999999999999989,0.0));
#357=DIRECTION('',(1.0,0.0,0.0));
#358=DIRECTION('',(0.0,0.0,-1.0));
#359=AXIS2_PLACEMENT_3D('',#356,#357,#358);
#360=PLANE('',#359);
#361=ORIENTED_EDGE('',*,*,#200,.F.);
#362=CARTESIAN_POINT('',(40.0,-16.499999999999989,0.0));
#363=VERTEX_POINT('',#362);
#364=CARTESIAN_POINT('',(40.0,-16.499999999999986,0.0));
#365=DIRECTION('',(0.0,0.0,1.0));
#366=VECTOR('',#365,13.0);
#367=LINE('',#364,#366);
#368=EDGE_CURVE('',#363,#114,#367,.T.);
#369=ORIENTED_EDGE('',*,*,#368,.F.);
#370=CARTESIAN_POINT('',(40.0,16.499999999999989,0.0));
#371=DIRECTION('',(0.0,-1.0,0.0));
#372=VECTOR('',#371,32.999999999999979);
#373=LINE('',#370,#372);
#374=EDGE_CURVE('',#331,#363,#373,.T.);
#375=ORIENTED_EDGE('',*,*,#374,.F.);
#376=ORIENTED_EDGE('',*,*,#336,.F.);
#377=EDGE_LOOP('',(#361,#369,#375,#376));
#378=FACE_OUTER_BOUND('',#377,.T.);
#379=ADVANCED_FACE('',(#378),#360,.T.);
#380=CARTESIAN_POINT('',(36.5,-16.499999999999986,0.0));
#381=DIRECTION('',(0.0,0.0,1.0));
#382=DIRECTION('',(0.707106781186548,-0.707106781186547,0.0));
#383=AXIS2_PLACEMENT_3D('',#380,#381,#382);
#384=CYLINDRICAL_SURFACE('',#383,3.5);
#385=ORIENTED_EDGE('',*,*,#136,.F.);
#386=CARTESIAN_POINT('',(36.5,-19.999999999999986,0.0));
#387=VERTEX_POINT('',#386);
#388=CARTESIAN_POINT('',(36.5,-19.999999999999986,13.0));
#389=DIRECTION('',(0.0,0.0,-1.0));
#390=VECTOR('',#389,13.0);
#391=LINE('',#388,#390);
#392=EDGE_CURVE('',#74,#387,#391,.T.);
#393=ORIENTED_EDGE('',*,*,#392,.T.);
#394=CARTESIAN_POINT('',(36.5,-16.499999999999986,0.0));
#395=DIRECTION('',(0.0,0.0,1.0));
#396=DIRECTION('',(0.707106781186548,-0.707106781186547,0.0));
#397=AXIS2_PLACEMENT_3D('',#394,#395,#396);
#398=CIRCLE('',#397,3.5);
#399=EDGE_CURVE('',#387,#363,#398,.T.);
#400=ORIENTED_EDGE('',*,*,#399,.T.);
#401=ORIENTED_EDGE('',*,*,#368,.T.);
#402=EDGE_LOOP('',(#385,#393,#400,#401));
#403=FACE_OUTER_BOUND('',#402,.T.);
#404=ADVANCED_FACE('',(#403),#384,.T.);
#405=CARTESIAN_POINT('',(40.0,-19.999999999999986,0.0));
#406=DIRECTION('',(0.0,-1.0,0.0));
#407=DIRECTION('',(0.0,0.0,-1.0));
#408=AXIS2_PLACEMENT_3D('',#405,#406,#407);
#409=PLANE('',#408);
#410=ORIENTED_EDGE('',*,*,#103,.F.);
#411=CARTESIAN_POINT('',(-36.5,-20.0,0.0));
#412=VERTEX_POINT('',#411);
#413=CARTESIAN_POINT('',(-36.5,-20.0,0.0));
#414=DIRECTION('',(0.0,0.0,1.0));
#415=VECTOR('',#414,13.0);
#416=LINE('',#413,#415);
#417=EDGE_CURVE('',#412,#92,#416,.T.);
#418=ORIENTED_EDGE('',*,*,#417,.F.);
#419=CARTESIAN_POINT('',(36.5,-19.999999999999986,0.0));
#420=DIRECTION('',(-1.0,0.0,0.0));
#421=VECTOR('',#420,73.0);
#422=LINE('',#419,#421);
#423=EDGE_CURVE('',#387,#412,#422,.T.);
#424=ORIENTED_EDGE('',*,*,#423,.F.);
#425=ORIENTED_EDGE('',*,*,#392,.F.);
#426=EDGE_LOOP('',(#410,#418,#424,#425));
#427=FACE_OUTER_BOUND('',#426,.T.);
#428=ADVANCED_FACE('',(#427),#409,.T.);
#429=CARTESIAN_POINT('',(-4.440892E-015,2.422305E-015,15.0));
#430=DIRECTION('',(0.0,0.0,1.0));
#431=DIRECTION('',(1.0,0.0,0.0));
#432=AXIS2_PLACEMENT_3D('',#429,#430,#431);
#433=PLANE('',#432);
#434=ORIENTED_EDGE('',*,*,#89,.F.);
#435=ORIENTED_EDGE('',*,*,#128,.F.);
#436=ORIENTED_EDGE('',*,*,#193,.F.);
#437=ORIENTED_EDGE('',*,*,#256,.F.);
#438=ORIENTED_EDGE('',*,*,#319,.F.);
#439=ORIENTED_EDGE('',*,*,#297,.F.);
#440=ORIENTED_EDGE('',*,*,#231,.F.);
#441=ORIENTED_EDGE('',*,*,#169,.F.);
#442=EDGE_LOOP('',(#434,#435,#436,#437,#438,#439,#440,#441));
#443=FACE_OUTER_BOUND('',#442,.T.);
#444=CARTESIAN_POINT('',(27.5,0.0,15.0));
#445=VERTEX_POINT('',#444);
#446=CARTESIAN_POINT('',(20.0,0.0,15.0));
#447=DIRECTION('',(0.0,0.0,-1.0));
#448=DIRECTION('',(1.0,0.0,0.0));
#449=AXIS2_PLACEMENT_3D('',#446,#447,#448);
#450=CIRCLE('',#449,7.5);
#451=EDGE_CURVE('',#445,#445,#450,.T.);
#452=ORIENTED_EDGE('',*,*,#451,.T.);
#453=EDGE_LOOP('',(#452));
#454=FACE_BOUND('',#453,.T.);
#455=CARTESIAN_POINT('',(-12.5,0.0,15.0));
#456=VERTEX_POINT('',#455);
#457=CARTESIAN_POINT('',(-20.0,0.0,15.0));
#458=DIRECTION('',(0.0,0.0,-1.0));
#459=DIRECTION('',(1.0,0.0,0.0));
#460=AXIS2_PLACEMENT_3D('',#457,#458,#459);
#461=CIRCLE('',#460,7.5);
#462=EDGE_CURVE('',#456,#456,#461,.T.);
#463=ORIENTED_EDGE('',*,*,#462,.T.);
#464=EDGE_LOOP('',(#463));
#465=FACE_BOUND('',#464,.T.);
#466=CARTESIAN_POINT('',(8.647,0.0,15.0));
#467=VERTEX_POINT('',#466);
#468=CARTESIAN_POINT('',(0.0,0.0,15.0));
#469=DIRECTION('',(0.0,0.0,-1.0));
#470=DIRECTION('',(1.0,0.0,0.0));
#471=AXIS2_PLACEMENT_3D('',#468,#469,#470);
#472=CIRCLE('',#471,8.647);
#473=EDGE_CURVE('',#467,#467,#472,.T.);
#474=ORIENTED_EDGE('',*,*,#473,.T.);
#475=EDGE_LOOP('',(#474));
#476=FACE_BOUND('',#475,.T.);
#477=ADVANCED_FACE('',(#443,#454,#465,#476),#433,.T.);
#478=CARTESIAN_POINT('',(-40.0,20.0,0.0));
#479=DIRECTION('',(0.0,1.0,0.0));
#480=DIRECTION('',(0.0,0.0,1.0));
#481=AXIS2_PLACEMENT_3D('',#478,#479,#480);
#482=PLANE('',#481);
#483=ORIENTED_EDGE('',*,*,#312,.F.);
#484=ORIENTED_EDGE('',*,*,#351,.F.);
#485=CARTESIAN_POINT('',(-36.5,20.0,0.0));
#486=VERTEX_POINT('',#485);
#487=CARTESIAN_POINT('',(-36.5,20.0,0.0));
#488=DIRECTION('',(1.0,0.0,0.0));
#489=VECTOR('',#488,73.0);
#490=LINE('',#487,#489);
#491=EDGE_CURVE('',#486,#339,#490,.T.);
#492=ORIENTED_EDGE('',*,*,#491,.F.);
#493=CARTESIAN_POINT('',(-36.5,20.0,13.0));
#494=DIRECTION('',(0.0,0.0,-1.0));
#495=VECTOR('',#494,13.0);
#496=LINE('',#493,#495);
#497=EDGE_CURVE('',#277,#486,#496,.T.);
#498=ORIENTED_EDGE('',*,*,#497,.F.);
#499=EDGE_LOOP('',(#483,#484,#492,#498));
#500=FACE_OUTER_BOUND('',#499,.T.);
#501=ADVANCED_FACE('',(#500),#482,.T.);
#502=CARTESIAN_POINT('',(-36.5,16.5,0.0));
#503=DIRECTION('',(0.0,0.0,1.0));
#504=DIRECTION('',(-0.707106781186548,0.707106781186547,0.0));
#505=AXIS2_PLACEMENT_3D('',#502,#503,#504);
#506=CYLINDRICAL_SURFACE('',#505,3.5);
#507=ORIENTED_EDGE('',*,*,#289,.F.);
#508=ORIENTED_EDGE('',*,*,#497,.T.);
#509=CARTESIAN_POINT('',(-40.0,16.5,0.0));
#510=VERTEX_POINT('',#509);
#511=CARTESIAN_POINT('',(-36.5,16.5,0.0));
#512=DIRECTION('',(0.0,0.0,1.0));
#513=DIRECTION('',(-0.707106781186548,0.707106781186547,0.0));
#514=AXIS2_PLACEMENT_3D('',#511,#512,#513);
#515=CIRCLE('',#514,3.5);
#516=EDGE_CURVE('',#486,#510,#515,.T.);
#517=ORIENTED_EDGE('',*,*,#516,.T.);
#518=CARTESIAN_POINT('',(-40.0,16.5,0.0));
#519=DIRECTION('',(0.0,0.0,1.0));
#520=VECTOR('',#519,13.0);
#521=LINE('',#518,#520);
#522=EDGE_CURVE('',#510,#213,#521,.T.);
#523=ORIENTED_EDGE('',*,*,#522,.T.);
#524=EDGE_LOOP('',(#507,#508,#517,#523));
#525=FACE_OUTER_BOUND('',#524,.T.);
#526=ADVANCED_FACE('',(#525),#506,.T.);
#527=CARTESIAN_POINT('',(-36.5,-16.5,0.0));
#528=DIRECTION('',(0.0,0.0,1.0));
#529=DIRECTION('',(-0.707106781186547,-0.707106781186548,0.0));
#530=AXIS2_PLACEMENT_3D('',#527,#528,#529);
#531=CYLINDRICAL_SURFACE('',#530,3.5);
#532=ORIENTED_EDGE('',*,*,#161,.F.);
#533=CARTESIAN_POINT('',(-40.0,-16.5,0.0));
#534=VERTEX_POINT('',#533);
#535=CARTESIAN_POINT('',(-40.0,-16.5,13.0));
#536=DIRECTION('',(0.0,0.0,-1.0));
#537=VECTOR('',#536,13.0);
#538=LINE('',#535,#537);
#539=EDGE_CURVE('',#149,#534,#538,.T.);
#540=ORIENTED_EDGE('',*,*,#539,.T.);
#541=CARTESIAN_POINT('',(-36.5,-16.5,0.0));
#542=DIRECTION('',(0.0,0.0,1.0));
#543=DIRECTION('',(-0.707106781186547,-0.707106781186548,0.0));
#544=AXIS2_PLACEMENT_3D('',#541,#542,#543);
#545=CIRCLE('',#544,3.5);
#546=EDGE_CURVE('',#534,#412,#545,.T.);
#547=ORIENTED_EDGE('',*,*,#546,.T.);
#548=ORIENTED_EDGE('',*,*,#417,.T.);
#549=EDGE_LOOP('',(#532,#540,#547,#548));
#550=FACE_OUTER_BOUND('',#549,.T.);
#551=ADVANCED_FACE('',(#550),#531,.T.);
#552=CARTESIAN_POINT('',(0.0,0.0,-75.691785736085265));
#553=DIRECTION('',(0.0,0.0,1.0));
#554=DIRECTION('',(1.0,0.0,0.0));
#555=AXIS2_PLACEMENT_3D('',#552,#553,#554);
#556=CYLINDRICAL_SURFACE('',#555,8.647);
#557=CARTESIAN_POINT('',(-8.647,-1.058917E-015,0.0));
#558=VERTEX_POINT('',#557);
#559=CARTESIAN_POINT('',(0.0,0.0,0.0));
#560=DIRECTION('',(0.0,0.0,1.0));
#561=DIRECTION('',(1.0,0.0,0.0));
#562=AXIS2_PLACEMENT_3D('',#559,#560,#561);
#563=CIRCLE('',#562,8.647);
#564=EDGE_CURVE('',#558,#558,#563,.T.);
#565=ORIENTED_EDGE('',*,*,#564,.F.);
#566=EDGE_LOOP('',(#565));
#567=FACE_OUTER_BOUND('',#566,.T.);
#568=ORIENTED_EDGE('',*,*,#473,.F.);
#569=EDGE_LOOP('',(#568));
#570=FACE_BOUND('',#569,.T.);
#571=ADVANCED_FACE('',(#567,#570),#556,.F.);
#572=CARTESIAN_POINT('',(-20.0,0.0,6.0));
#573=DIRECTION('',(0.0,0.0,1.0));
#574=DIRECTION('',(1.0,0.0,0.0));
#575=AXIS2_PLACEMENT_3D('',#572,#573,#574);
#576=PLANE('',#575);
#577=CARTESIAN_POINT('',(-12.5,0.0,6.0));
#578=VERTEX_POINT('',#577);
#579=CARTESIAN_POINT('',(-20.0,0.0,6.0));
#580=DIRECTION('',(0.0,0.0,1.0));
#581=DIRECTION('',(1.0,0.0,0.0));
#582=AXIS2_PLACEMENT_3D('',#579,#580,#581);
#583=CIRCLE('',#582,7.5);
#584=EDGE_CURVE('',#578,#578,#583,.T.);
#585=ORIENTED_EDGE('',*,*,#584,.T.);
#586=EDGE_LOOP('',(#585));
#587=FACE_OUTER_BOUND('',#586,.T.);
#588=CARTESIAN_POINT('',(-24.5,-5.510729E-016,5.999999999999996));
#589=VERTEX_POINT('',#588);
#590=CARTESIAN_POINT('',(-20.0,0.0,5.999999999999996));
#591=DIRECTION('',(0.0,0.0,1.0));
#592=DIRECTION('',(1.0,0.0,0.0));
#593=AXIS2_PLACEMENT_3D('',#590,#591,#592);
#594=CIRCLE('',#593,4.5);
#595=EDGE_CURVE('',#589,#589,#594,.T.);
#596=ORIENTED_EDGE('',*,*,#595,.F.);
#597=EDGE_LOOP('',(#596));
#598=FACE_BOUND('',#597,.T.);
#599=ADVANCED_FACE('',(#587,#598),#576,.T.);
#600=CARTESIAN_POINT('',(-20.0,0.0,10.5));
#601=DIRECTION('',(0.0,0.0,1.0));
#602=DIRECTION('',(1.0,0.0,0.0));
#603=AXIS2_PLACEMENT_3D('',#600,#601,#602);
#604=CYLINDRICAL_SURFACE('',#603,7.5);
#605=ORIENTED_EDGE('',*,*,#462,.F.);
#606=EDGE_LOOP('',(#605));
#607=FACE_OUTER_BOUND('',#606,.T.);
#608=ORIENTED_EDGE('',*,*,#584,.F.);
#609=EDGE_LOOP('',(#608));
#610=FACE_BOUND('',#609,.T.);
#611=ADVANCED_FACE('',(#607,#610),#604,.F.);
#612=CARTESIAN_POINT('',(-20.0,0.0,-75.691785736085265));
#613=DIRECTION('',(0.0,0.0,1.0));
#614=DIRECTION('',(1.0,0.0,0.0));
#615=AXIS2_PLACEMENT_3D('',#612,#613,#614);
#616=CYLINDRICAL_SURFACE('',#615,4.5);
#617=CARTESIAN_POINT('',(-24.5,-5.510729E-016,0.0));
#618=VERTEX_POINT('',#617);
#619=CARTESIAN_POINT('',(-20.0,0.0,0.0));
#620=DIRECTION('',(0.0,0.0,1.0));
#621=DIRECTION('',(1.0,0.0,0.0));
#622=AXIS2_PLACEMENT_3D('',#619,#620,#621);
#623=CIRCLE('',#622,4.5);
#624=EDGE_CURVE('',#618,#618,#623,.T.);
#625=ORIENTED_EDGE('',*,*,#624,.F.);
#626=EDGE_LOOP('',(#625));
#627=FACE_OUTER_BOUND('',#626,.T.);
#628=ORIENTED_EDGE('',*,*,#595,.T.);
#629=EDGE_LOOP('',(#628));
#630=FACE_BOUND('',#629,.T.);
#631=ADVANCED_FACE('',(#627,#630),#616,.F.);
#632=CARTESIAN_POINT('',(20.0,0.0,6.0));
#633=DIRECTION('',(0.0,0.0,1.0));
#634=DIRECTION('',(1.0,0.0,0.0));
#635=AXIS2_PLACEMENT_3D('',#632,#633,#634);
#636=PLANE('',#635);
#637=CARTESIAN_POINT('',(27.5,0.0,6.0));
#638=VERTEX_POINT('',#637);
#639=CARTESIAN_POINT('',(20.0,0.0,6.0));
#640=DIRECTION('',(0.0,0.0,1.0));
#641=DIRECTION('',(1.0,0.0,0.0));
#642=AXIS2_PLACEMENT_3D('',#639,#640,#641);
#643=CIRCLE('',#642,7.5);
#644=EDGE_CURVE('',#638,#638,#643,.T.);
#645=ORIENTED_EDGE('',*,*,#644,.T.);
#646=EDGE_LOOP('',(#645));
#647=FACE_OUTER_BOUND('',#646,.T.);
#648=CARTESIAN_POINT('',(15.5,-5.510729E-016,5.999999999999996));
#649=VERTEX_POINT('',#648);
#650=CARTESIAN_POINT('',(20.0,0.0,5.999999999999996));
#651=DIRECTION('',(0.0,0.0,1.0));
#652=DIRECTION('',(1.0,0.0,0.0));
#653=AXIS2_PLACEMENT_3D('',#650,#651,#652);
#654=CIRCLE('',#653,4.5);
#655=EDGE_CURVE('',#649,#649,#654,.T.);
#656=ORIENTED_EDGE('',*,*,#655,.F.);
#657=EDGE_LOOP('',(#656));
#658=FACE_BOUND('',#657,.T.);
#659=ADVANCED_FACE('',(#647,#658),#636,.T.);
#660=CARTESIAN_POINT('',(20.0,0.0,10.5));
#661=DIRECTION('',(0.0,0.0,1.0));
#662=DIRECTION('',(1.0,0.0,0.0));
#663=AXIS2_PLACEMENT_3D('',#660,#661,#662);
#664=CYLINDRICAL_SURFACE('',#663,7.5);
#665=ORIENTED_EDGE('',*,*,#451,.F.);
#666=EDGE_LOOP('',(#665));
#667=FACE_OUTER_BOUND('',#666,.T.);
#668=ORIENTED_EDGE('',*,*,#644,.F.);
#669=EDGE_LOOP('',(#668));
#670=FACE_BOUND('',#669,.T.);
#671=ADVANCED_FACE('',(#667,#670),#664,.F.);
#672=CARTESIAN_POINT('',(20.0,0.0,-75.691785736085265));
#673=DIRECTION('',(0.0,0.0,1.0));
#674=DIRECTION('',(1.0,0.0,0.0));
#675=AXIS2_PLACEMENT_3D('',#672,#673,#674);
#676=CYLINDRICAL_SURFACE('',#675,4.5);
#677=CARTESIAN_POINT('',(15.5,-5.510729E-016,0.0));
#678=VERTEX_POINT('',#677);
#679=CARTESIAN_POINT('',(20.0,0.0,0.0));
#680=DIRECTION('',(0.0,0.0,1.0));
#681=DIRECTION('',(1.0,0.0,0.0));
#682=AXIS2_PLACEMENT_3D('',#679,#680,#681);
#683=CIRCLE('',#682,4.5);
#684=EDGE_CURVE('',#678,#678,#683,.T.);
#685=ORIENTED_EDGE('',*,*,#684,.F.);
#686=EDGE_LOOP('',(#685));
#687=FACE_OUTER_BOUND('',#686,.T.);
#688=ORIENTED_EDGE('',*,*,#655,.T.);
#689=EDGE_LOOP('',(#688));
#690=FACE_BOUND('',#689,.T.);
#691=ADVANCED_FACE('',(#687,#690),#676,.F.);
#692=CARTESIAN_POINT('',(-40.0,-20.0,0.0));
#693=DIRECTION('',(-1.0,0.0,0.0));
#694=DIRECTION('',(0.0,0.0,1.0));
#695=AXIS2_PLACEMENT_3D('',#692,#693,#694);
#696=PLANE('',#695);
#697=ORIENTED_EDGE('',*,*,#224,.F.);
#698=ORIENTED_EDGE('',*,*,#522,.F.);
#699=CARTESIAN_POINT('',(-40.0,-16.5,0.0));
#700=DIRECTION('',(0.0,1.0,0.0));
#701=VECTOR('',#700,33.0);
#702=LINE('',#699,#701);
#703=EDGE_CURVE('',#534,#510,#702,.T.);
#704=ORIENTED_EDGE('',*,*,#703,.F.);
#705=ORIENTED_EDGE('',*,*,#539,.F.);
#706=EDGE_LOOP('',(#697,#698,#704,#705));
#707=FACE_OUTER_BOUND('',#706,.T.);
#708=ADVANCED_FACE('',(#707),#696,.T.);
#709=CARTESIAN_POINT('',(-4.440892E-015,2.422305E-015,0.0));
#710=DIRECTION('',(0.0,0.0,1.0));
#711=DIRECTION('',(1.0,0.0,0.0));
#712=AXIS2_PLACEMENT_3D('',#709,#710,#711);
#713=PLANE('',#712);
#714=ORIENTED_EDGE('',*,*,#345,.F.);
#715=ORIENTED_EDGE('',*,*,#374,.T.);
#716=ORIENTED_EDGE('',*,*,#399,.F.);
#717=ORIENTED_EDGE('',*,*,#423,.T.);
#718=ORIENTED_EDGE('',*,*,#546,.F.);
#719=ORIENTED_EDGE('',*,*,#703,.T.);
#720=ORIENTED_EDGE('',*,*,#516,.F.);
#721=ORIENTED_EDGE('',*,*,#491,.T.);
#722=EDGE_LOOP('',(#714,#715,#716,#717,#718,#719,#720,#721));
#723=FACE_OUTER_BOUND('',#722,.T.);
#724=ORIENTED_EDGE('',*,*,#564,.T.);
#725=EDGE_LOOP('',(#724));
#726=FACE_BOUND('',#725,.T.);
#727=ORIENTED_EDGE('',*,*,#624,.T.);
#728=EDGE_LOOP('',(#727));
#729=FACE_BOUND('',#728,.T.);
#730=ORIENTED_EDGE('',*,*,#684,.T.);
#731=EDGE_LOOP('',(#730));
#732=FACE_BOUND('',#731,.T.);
#733=ADVANCED_FACE('',(#723,#726,#729,#732),#713,.F.);
#734=CLOSED_SHELL('',(#107,#140,#173,#204,#235,#268,#301,#323,#355,#379,#404,#428,#477,#501,#526,#551,#571,#599,#611,#631,#659,#671,#691,#708,#733));
#735=MANIFOLD_SOLID_BREP('Volumenk\S\vrper1',#734);
#736=COLOUR_RGB('Metall - Stahl',0.639215707778931,0.639215707778931,0.686274528503418);
#737=FILL_AREA_STYLE_COLOUR('Metall - Stahl',#736);
#738=FILL_AREA_STYLE('Metall - Stahl',(#737));
#739=SURFACE_STYLE_FILL_AREA(#738);
#740=SURFACE_SIDE_STYLE('Metall - Stahl',(#739));
#741=SURFACE_STYLE_USAGE(.BOTH.,#740);
#742=PRESENTATION_STYLE_ASSIGNMENT((#741));
#743=STYLED_ITEM('',(#742),#735);
#744=MECHANICAL_DESIGN_GEOMETRIC_PRESENTATION_REPRESENTATION('',(#743),#36);
#745=ADVANCED_BREP_SHAPE_REPRESENTATION('ABSR',(#735),#36);
#746=SHAPE_REPRESENTATION_RELATIONSHIP('SRR','None',#745,#41);
ENDSEC;
END-ISO-10303-21;
