ISO-10303-21;
HEADER;
/* Generated by software containing ST-Developer
 * from STEP Tools, Inc. (www.steptools.com) 
 */

FILE_DESCRIPTION(
/* description */ ('Universalspanner 40'),
/* implementation_level */ '2;1');

FILE_NAME(
/* name */ 'Q:\\ExterneArtikel_Webseite_Palkat\\SV\\SV_step\\SV1800V_A.
stp',
/* time_stamp */ '2015-11-30T12:13:17+01:00',
/* author */ ('Marina Kaa'),
/* organization */ (''),
/* preprocessor_version */ 'ST-DEVELOPER v15.6',
/* originating_system */ 'Autodesk Inventor 2015',
/* authorisation */ '');

FILE_SCHEMA (('AUTOMOTIVE_DESIGN { 1 0 10303 214 3 1 1 }'));
ENDSEC;

DATA;
#10=MECHANICAL_DESIGN_GEOMETRIC_PRESENTATION_REPRESENTATION('',(#13),#534);
#11=SHAPE_REPRESENTATION_RELATIONSHIP('SRR','None',#543,#12);
#12=ADVANCED_BREP_SHAPE_REPRESENTATION($,(#14),#533);
#13=STYLED_ITEM('',(#552),#14);
#14=MANIFOLD_SOLID_BREP('Volumenk\X\F6rper1',#270);
#15=FACE_BOUND('',#67,.T.);
#16=FACE_BOUND('',#68,.T.);
#17=FACE_BOUND('',#69,.T.);
#18=FACE_BOUND('',#76,.T.);
#19=FACE_BOUND('',#78,.T.);
#20=FACE_BOUND('',#80,.T.);
#21=B_SPLINE_CURVE_WITH_KNOTS('',3,(#441,#442,#443,#444,#445,#446,#447,
#448,#449,#450,#451,#452,#453,#454,#455,#456,#457,#458,#459,#460,#461,#462,
#463,#464,#465,#466,#467,#468,#469,#470,#471,#472,#473,#474),
 .UNSPECIFIED.,.T.,.F.,(4,2,2,2,2,2,2,2,2,2,2,2,2,2,2,2,4),(0.,0.154646196830182,
0.309292393660364,0.463764183051209,0.618235972442054,0.772707761832899,
0.927179551223744,1.08182574805393,1.23647194488411,1.39111814171429,1.54576433854447,
1.70023612793532,1.85470791732616,2.00917970671701,2.16365149610785,2.31829769293803,
2.47294388976822),.UNSPECIFIED.);
#22=B_SPLINE_CURVE_WITH_KNOTS('',3,(#477,#478,#479,#480,#481,#482,#483,
#484,#485,#486,#487,#488,#489,#490,#491,#492,#493,#494),.UNSPECIFIED.,.F.,
 .F.,(4,2,2,2,2,2,2,2,4),(1.15211475750597,1.43743897630521,1.72276319510446,
2.0134963550582,2.30422951501194,2.59496267496568,2.88569583491943,3.17102005371867,
3.45634427251791),.UNSPECIFIED.);
#23=B_SPLINE_CURVE_WITH_KNOTS('',3,(#495,#496,#497,#498,#499,#500,#501,
#502,#503,#504,#505,#506,#507,#508,#509,#510,#511,#512,#513),
 .UNSPECIFIED.,.F.,.F.,(4,2,2,2,3,2,2,2,4),(3.45634427251791,3.74166849131716,
4.0269927101164,4.31772587007014,4.60845903002388,4.89919218997763,5.18992534993137,
5.47524956873061,5.76057378752985),.UNSPECIFIED.);
#24=CYLINDRICAL_SURFACE('',#285,9.875);
#25=CYLINDRICAL_SURFACE('',#300,7.25);
#26=CYLINDRICAL_SURFACE('',#301,4.05);
#27=CONICAL_SURFACE('',#283,9.725,45.);
#28=CONICAL_SURFACE('',#292,9.725,45.);
#29=CONICAL_SURFACE('',#293,9.725,45.);
#30=CONICAL_SURFACE('',#294,9.725,45.);
#31=CIRCLE('',#276,9.875);
#32=CIRCLE('',#277,9.875);
#33=CIRCLE('',#282,9.575);
#34=CIRCLE('',#284,9.875);
#35=CIRCLE('',#286,9.875);
#36=CIRCLE('',#287,9.875);
#37=CIRCLE('',#288,9.875);
#38=CIRCLE('',#290,9.575);
#39=CIRCLE('',#291,9.575);
#40=CIRCLE('',#295,9.575);
#41=CIRCLE('',#298,7.25);
#42=CIRCLE('',#299,4.05);
#43=FACE_OUTER_BOUND('',#59,.T.);
#44=FACE_OUTER_BOUND('',#60,.T.);
#45=FACE_OUTER_BOUND('',#61,.T.);
#46=FACE_OUTER_BOUND('',#62,.T.);
#47=FACE_OUTER_BOUND('',#63,.T.);
#48=FACE_OUTER_BOUND('',#64,.T.);
#49=FACE_OUTER_BOUND('',#65,.T.);
#50=FACE_OUTER_BOUND('',#66,.T.);
#51=FACE_OUTER_BOUND('',#70,.T.);
#52=FACE_OUTER_BOUND('',#71,.T.);
#53=FACE_OUTER_BOUND('',#72,.T.);
#54=FACE_OUTER_BOUND('',#73,.T.);
#55=FACE_OUTER_BOUND('',#74,.T.);
#56=FACE_OUTER_BOUND('',#75,.T.);
#57=FACE_OUTER_BOUND('',#77,.T.);
#58=FACE_OUTER_BOUND('',#79,.T.);
#59=EDGE_LOOP('',(#175,#176,#177,#178));
#60=EDGE_LOOP('',(#179,#180,#181,#182,#183,#184));
#61=EDGE_LOOP('',(#185,#186,#187,#188));
#62=EDGE_LOOP('',(#189,#190,#191,#192,#193,#194));
#63=EDGE_LOOP('',(#195,#196,#197,#198));
#64=EDGE_LOOP('',(#199,#200));
#65=EDGE_LOOP('',(#201,#202,#203,#204));
#66=EDGE_LOOP('',(#205,#206,#207,#208,#209,#210,#211,#212));
#67=EDGE_LOOP('',(#213));
#68=EDGE_LOOP('',(#214,#215));
#69=EDGE_LOOP('',(#216,#217,#218,#219));
#70=EDGE_LOOP('',(#220,#221,#222,#223));
#71=EDGE_LOOP('',(#224,#225,#226,#227));
#72=EDGE_LOOP('',(#228,#229,#230,#231));
#73=EDGE_LOOP('',(#232,#233,#234,#235));
#74=EDGE_LOOP('',(#236,#237));
#75=EDGE_LOOP('',(#238));
#76=EDGE_LOOP('',(#239));
#77=EDGE_LOOP('',(#240,#241));
#78=EDGE_LOOP('',(#242));
#79=EDGE_LOOP('',(#243));
#80=EDGE_LOOP('',(#244));
#81=LINE('',#391,#95);
#82=LINE('',#395,#96);
#83=LINE('',#397,#97);
#84=LINE('',#399,#98);
#85=LINE('',#401,#99);
#86=LINE('',#403,#100);
#87=LINE('',#404,#101);
#88=LINE('',#409,#102);
#89=LINE('',#413,#103);
#90=LINE('',#415,#104);
#91=LINE('',#417,#105);
#92=LINE('',#419,#106);
#93=LINE('',#420,#107);
#94=LINE('',#428,#108);
#95=VECTOR('',#308,10.893117092917);
#96=VECTOR('',#311,0.2);
#97=VECTOR('',#312,19.7246672975744);
#98=VECTOR('',#313,0.2);
#99=VECTOR('',#314,0.424545159501687);
#100=VECTOR('',#315,19.1238725157851);
#101=VECTOR('',#316,0.424545159501687);
#102=VECTOR('',#321,19.7246672975744);
#103=VECTOR('',#326,0.2);
#104=VECTOR('',#327,0.424545159501687);
#105=VECTOR('',#328,19.1238725157851);
#106=VECTOR('',#329,0.424545159501687);
#107=VECTOR('',#330,0.2);
#108=VECTOR('',#333,10.893117092917);
#109=ELLIPSE('',#273,13.9653589284343,9.875);
#110=ELLIPSE('',#280,13.9653589284343,9.875);
#111=(
BOUNDED_CURVE()
B_SPLINE_CURVE(2,(#382,#383,#384),.UNSPECIFIED.,.F.,.F.)
B_SPLINE_CURVE_WITH_KNOTS((3,3),(0.,0.0434304594568682),.UNSPECIFIED.)
CURVE()
GEOMETRIC_REPRESENTATION_ITEM()
RATIONAL_B_SPLINE_CURVE((1.,1.,1.))
REPRESENTATION_ITEM('')
);
#112=(
BOUNDED_CURVE()
B_SPLINE_CURVE(2,(#388,#389,#390),.UNSPECIFIED.,.F.,.F.)
B_SPLINE_CURVE_WITH_KNOTS((3,3),(0.,0.0434304594568682),.UNSPECIFIED.)
CURVE()
GEOMETRIC_REPRESENTATION_ITEM()
RATIONAL_B_SPLINE_CURVE((1.,1.,1.))
REPRESENTATION_ITEM('')
);
#113=(
BOUNDED_CURVE()
B_SPLINE_CURVE(2,(#424,#425,#426),.UNSPECIFIED.,.F.,.F.)
B_SPLINE_CURVE_WITH_KNOTS((3,3),(0.,0.0434304594568682),.UNSPECIFIED.)
CURVE()
GEOMETRIC_REPRESENTATION_ITEM()
RATIONAL_B_SPLINE_CURVE((1.,1.,1.))
REPRESENTATION_ITEM('')
);
#114=(
BOUNDED_CURVE()
B_SPLINE_CURVE(2,(#430,#431,#432),.UNSPECIFIED.,.F.,.F.)
B_SPLINE_CURVE_WITH_KNOTS((3,3),(0.,0.0434304594568682),.UNSPECIFIED.)
CURVE()
GEOMETRIC_REPRESENTATION_ITEM()
RATIONAL_B_SPLINE_CURVE((1.,1.,1.))
REPRESENTATION_ITEM('')
);
#115=VERTEX_POINT('',#380);
#116=VERTEX_POINT('',#381);
#117=VERTEX_POINT('',#385);
#118=VERTEX_POINT('',#387);
#119=VERTEX_POINT('',#393);
#120=VERTEX_POINT('',#394);
#121=VERTEX_POINT('',#396);
#122=VERTEX_POINT('',#398);
#123=VERTEX_POINT('',#400);
#124=VERTEX_POINT('',#402);
#125=VERTEX_POINT('',#406);
#126=VERTEX_POINT('',#408);
#127=VERTEX_POINT('',#412);
#128=VERTEX_POINT('',#414);
#129=VERTEX_POINT('',#416);
#130=VERTEX_POINT('',#418);
#131=VERTEX_POINT('',#422);
#132=VERTEX_POINT('',#423);
#133=VERTEX_POINT('',#427);
#134=VERTEX_POINT('',#429);
#135=VERTEX_POINT('',#440);
#136=VERTEX_POINT('',#475);
#137=VERTEX_POINT('',#476);
#138=VERTEX_POINT('',#525);
#139=VERTEX_POINT('',#527);
#140=EDGE_CURVE('',#115,#116,#111,.T.);
#141=EDGE_CURVE('',#117,#115,#109,.T.);
#142=EDGE_CURVE('',#118,#117,#112,.T.);
#143=EDGE_CURVE('',#116,#118,#81,.T.);
#144=EDGE_CURVE('',#119,#120,#82,.T.);
#145=EDGE_CURVE('',#121,#119,#83,.T.);
#146=EDGE_CURVE('',#122,#121,#84,.T.);
#147=EDGE_CURVE('',#123,#122,#85,.T.);
#148=EDGE_CURVE('',#124,#123,#86,.T.);
#149=EDGE_CURVE('',#120,#124,#87,.T.);
#150=EDGE_CURVE('',#125,#119,#31,.T.);
#151=EDGE_CURVE('',#126,#125,#88,.T.);
#152=EDGE_CURVE('',#121,#126,#32,.T.);
#153=EDGE_CURVE('',#127,#125,#89,.T.);
#154=EDGE_CURVE('',#128,#127,#90,.T.);
#155=EDGE_CURVE('',#129,#128,#91,.T.);
#156=EDGE_CURVE('',#130,#129,#92,.T.);
#157=EDGE_CURVE('',#126,#130,#93,.T.);
#158=EDGE_CURVE('',#131,#132,#113,.T.);
#159=EDGE_CURVE('',#133,#131,#94,.T.);
#160=EDGE_CURVE('',#134,#133,#114,.T.);
#161=EDGE_CURVE('',#132,#134,#110,.T.);
#162=EDGE_CURVE('',#124,#123,#33,.T.);
#163=EDGE_CURVE('',#122,#120,#34,.T.);
#164=EDGE_CURVE('',#127,#130,#35,.T.);
#165=EDGE_CURVE('',#135,#135,#21,.T.);
#166=EDGE_CURVE('',#136,#137,#22,.T.);
#167=EDGE_CURVE('',#137,#136,#23,.T.);
#168=EDGE_CURVE('',#132,#115,#36,.T.);
#169=EDGE_CURVE('',#117,#134,#37,.T.);
#170=EDGE_CURVE('',#133,#118,#38,.T.);
#171=EDGE_CURVE('',#116,#131,#39,.T.);
#172=EDGE_CURVE('',#129,#128,#40,.T.);
#173=EDGE_CURVE('',#138,#138,#41,.T.);
#174=EDGE_CURVE('',#139,#139,#42,.T.);
#175=ORIENTED_EDGE('',*,*,#140,.F.);
#176=ORIENTED_EDGE('',*,*,#141,.F.);
#177=ORIENTED_EDGE('',*,*,#142,.F.);
#178=ORIENTED_EDGE('',*,*,#143,.F.);
#179=ORIENTED_EDGE('',*,*,#144,.F.);
#180=ORIENTED_EDGE('',*,*,#145,.F.);
#181=ORIENTED_EDGE('',*,*,#146,.F.);
#182=ORIENTED_EDGE('',*,*,#147,.F.);
#183=ORIENTED_EDGE('',*,*,#148,.F.);
#184=ORIENTED_EDGE('',*,*,#149,.F.);
#185=ORIENTED_EDGE('',*,*,#150,.F.);
#186=ORIENTED_EDGE('',*,*,#151,.F.);
#187=ORIENTED_EDGE('',*,*,#152,.F.);
#188=ORIENTED_EDGE('',*,*,#145,.T.);
#189=ORIENTED_EDGE('',*,*,#153,.F.);
#190=ORIENTED_EDGE('',*,*,#154,.F.);
#191=ORIENTED_EDGE('',*,*,#155,.F.);
#192=ORIENTED_EDGE('',*,*,#156,.F.);
#193=ORIENTED_EDGE('',*,*,#157,.F.);
#194=ORIENTED_EDGE('',*,*,#151,.T.);
#195=ORIENTED_EDGE('',*,*,#158,.F.);
#196=ORIENTED_EDGE('',*,*,#159,.F.);
#197=ORIENTED_EDGE('',*,*,#160,.F.);
#198=ORIENTED_EDGE('',*,*,#161,.F.);
#199=ORIENTED_EDGE('',*,*,#148,.T.);
#200=ORIENTED_EDGE('',*,*,#162,.F.);
#201=ORIENTED_EDGE('',*,*,#149,.T.);
#202=ORIENTED_EDGE('',*,*,#162,.T.);
#203=ORIENTED_EDGE('',*,*,#147,.T.);
#204=ORIENTED_EDGE('',*,*,#163,.T.);
#205=ORIENTED_EDGE('',*,*,#153,.T.);
#206=ORIENTED_EDGE('',*,*,#150,.T.);
#207=ORIENTED_EDGE('',*,*,#144,.T.);
#208=ORIENTED_EDGE('',*,*,#163,.F.);
#209=ORIENTED_EDGE('',*,*,#146,.T.);
#210=ORIENTED_EDGE('',*,*,#152,.T.);
#211=ORIENTED_EDGE('',*,*,#157,.T.);
#212=ORIENTED_EDGE('',*,*,#164,.F.);
#213=ORIENTED_EDGE('',*,*,#165,.T.);
#214=ORIENTED_EDGE('',*,*,#166,.T.);
#215=ORIENTED_EDGE('',*,*,#167,.T.);
#216=ORIENTED_EDGE('',*,*,#141,.T.);
#217=ORIENTED_EDGE('',*,*,#168,.F.);
#218=ORIENTED_EDGE('',*,*,#161,.T.);
#219=ORIENTED_EDGE('',*,*,#169,.F.);
#220=ORIENTED_EDGE('',*,*,#143,.T.);
#221=ORIENTED_EDGE('',*,*,#170,.F.);
#222=ORIENTED_EDGE('',*,*,#159,.T.);
#223=ORIENTED_EDGE('',*,*,#171,.F.);
#224=ORIENTED_EDGE('',*,*,#142,.T.);
#225=ORIENTED_EDGE('',*,*,#169,.T.);
#226=ORIENTED_EDGE('',*,*,#160,.T.);
#227=ORIENTED_EDGE('',*,*,#170,.T.);
#228=ORIENTED_EDGE('',*,*,#140,.T.);
#229=ORIENTED_EDGE('',*,*,#171,.T.);
#230=ORIENTED_EDGE('',*,*,#158,.T.);
#231=ORIENTED_EDGE('',*,*,#168,.T.);
#232=ORIENTED_EDGE('',*,*,#154,.T.);
#233=ORIENTED_EDGE('',*,*,#164,.T.);
#234=ORIENTED_EDGE('',*,*,#156,.T.);
#235=ORIENTED_EDGE('',*,*,#172,.T.);
#236=ORIENTED_EDGE('',*,*,#155,.T.);
#237=ORIENTED_EDGE('',*,*,#172,.F.);
#238=ORIENTED_EDGE('',*,*,#173,.F.);
#239=ORIENTED_EDGE('',*,*,#174,.T.);
#240=ORIENTED_EDGE('',*,*,#166,.F.);
#241=ORIENTED_EDGE('',*,*,#167,.F.);
#242=ORIENTED_EDGE('',*,*,#173,.T.);
#243=ORIENTED_EDGE('',*,*,#165,.F.);
#244=ORIENTED_EDGE('',*,*,#174,.F.);
#245=PLANE('',#272);
#246=PLANE('',#274);
#247=PLANE('',#275);
#248=PLANE('',#278);
#249=PLANE('',#279);
#250=PLANE('',#281);
#251=PLANE('',#289);
#252=PLANE('',#296);
#253=PLANE('',#297);
#254=ADVANCED_FACE('',(#43),#245,.F.);
#255=ADVANCED_FACE('',(#44),#246,.F.);
#256=ADVANCED_FACE('',(#45),#247,.F.);
#257=ADVANCED_FACE('',(#46),#248,.F.);
#258=ADVANCED_FACE('',(#47),#249,.F.);
#259=ADVANCED_FACE('',(#48),#250,.T.);
#260=ADVANCED_FACE('',(#49),#27,.T.);
#261=ADVANCED_FACE('',(#50,#15,#16,#17),#24,.T.);
#262=ADVANCED_FACE('',(#51),#251,.F.);
#263=ADVANCED_FACE('',(#52),#28,.T.);
#264=ADVANCED_FACE('',(#53),#29,.T.);
#265=ADVANCED_FACE('',(#54),#30,.T.);
#266=ADVANCED_FACE('',(#55),#252,.T.);
#267=ADVANCED_FACE('',(#56,#18),#253,.F.);
#268=ADVANCED_FACE('',(#57,#19),#25,.F.);
#269=ADVANCED_FACE('',(#58,#20),#26,.F.);
#270=CLOSED_SHELL('',(#254,#255,#256,#257,#258,#259,#260,#261,#262,#263,
#264,#265,#266,#267,#268,#269));
#271=AXIS2_PLACEMENT_3D('placement',#378,#302,#303);
#272=AXIS2_PLACEMENT_3D('',#379,#304,#305);
#273=AXIS2_PLACEMENT_3D('',#386,#306,#307);
#274=AXIS2_PLACEMENT_3D('',#392,#309,#310);
#275=AXIS2_PLACEMENT_3D('',#405,#317,#318);
#276=AXIS2_PLACEMENT_3D('',#407,#319,#320);
#277=AXIS2_PLACEMENT_3D('',#410,#322,#323);
#278=AXIS2_PLACEMENT_3D('',#411,#324,#325);
#279=AXIS2_PLACEMENT_3D('',#421,#331,#332);
#280=AXIS2_PLACEMENT_3D('',#433,#334,#335);
#281=AXIS2_PLACEMENT_3D('',#434,#336,#337);
#282=AXIS2_PLACEMENT_3D('',#435,#338,#339);
#283=AXIS2_PLACEMENT_3D('',#436,#340,#341);
#284=AXIS2_PLACEMENT_3D('',#437,#342,#343);
#285=AXIS2_PLACEMENT_3D('',#438,#344,#345);
#286=AXIS2_PLACEMENT_3D('',#439,#346,#347);
#287=AXIS2_PLACEMENT_3D('',#514,#348,#349);
#288=AXIS2_PLACEMENT_3D('',#515,#350,#351);
#289=AXIS2_PLACEMENT_3D('',#516,#352,#353);
#290=AXIS2_PLACEMENT_3D('',#517,#354,#355);
#291=AXIS2_PLACEMENT_3D('',#518,#356,#357);
#292=AXIS2_PLACEMENT_3D('',#519,#358,#359);
#293=AXIS2_PLACEMENT_3D('',#520,#360,#361);
#294=AXIS2_PLACEMENT_3D('',#521,#362,#363);
#295=AXIS2_PLACEMENT_3D('',#522,#364,#365);
#296=AXIS2_PLACEMENT_3D('',#523,#366,#367);
#297=AXIS2_PLACEMENT_3D('',#524,#368,#369);
#298=AXIS2_PLACEMENT_3D('',#526,#370,#371);
#299=AXIS2_PLACEMENT_3D('',#528,#372,#373);
#300=AXIS2_PLACEMENT_3D('',#529,#374,#375);
#301=AXIS2_PLACEMENT_3D('',#530,#376,#377);
#302=DIRECTION('axis',(0.,0.,1.));
#303=DIRECTION('refdir',(1.,0.,0.));
#304=DIRECTION('center_axis',(0.707106781186548,0.,-0.707106781186548));
#305=DIRECTION('ref_axis',(-0.707106781186548,0.,-0.707106781186548));
#306=DIRECTION('center_axis',(0.707106781186548,0.,-0.707106781186548));
#307=DIRECTION('ref_axis',(-0.707106781186547,0.,-0.707106781186547));
#308=DIRECTION('',(0.,-1.,0.));
#309=DIRECTION('center_axis',(-1.,0.,0.));
#310=DIRECTION('ref_axis',(0.,0.,1.));
#311=DIRECTION('',(0.,0.,-1.));
#312=DIRECTION('',(0.,1.,0.));
#313=DIRECTION('',(0.,0.,1.));
#314=DIRECTION('',(0.,-0.707574645880413,0.706638606720018));
#315=DIRECTION('',(0.,-1.,0.));
#316=DIRECTION('',(0.,-0.707574645880413,-0.706638606720018));
#317=DIRECTION('center_axis',(0.,0.,1.));
#318=DIRECTION('ref_axis',(1.,0.,0.));
#319=DIRECTION('center_axis',(0.,0.,1.));
#320=DIRECTION('ref_axis',(-1.,0.,0.));
#321=DIRECTION('',(0.,1.,0.));
#322=DIRECTION('center_axis',(0.,0.,1.));
#323=DIRECTION('ref_axis',(-1.,0.,0.));
#324=DIRECTION('center_axis',(1.,0.,0.));
#325=DIRECTION('ref_axis',(0.,0.,-1.));
#326=DIRECTION('',(0.,0.,1.));
#327=DIRECTION('',(0.,0.707574645880413,0.706638606720018));
#328=DIRECTION('',(0.,1.,0.));
#329=DIRECTION('',(0.,0.707574645880413,-0.706638606720018));
#330=DIRECTION('',(0.,0.,-1.));
#331=DIRECTION('center_axis',(-0.707106781186548,0.,-0.707106781186548));
#332=DIRECTION('ref_axis',(-0.707106781186548,0.,0.707106781186548));
#333=DIRECTION('',(0.,1.,0.));
#334=DIRECTION('center_axis',(-0.707106781186548,0.,-0.707106781186548));
#335=DIRECTION('ref_axis',(-0.707106781186547,0.,0.707106781186547));
#336=DIRECTION('center_axis',(0.,0.,-1.));
#337=DIRECTION('ref_axis',(-1.,0.,0.));
#338=DIRECTION('center_axis',(0.,0.,1.));
#339=DIRECTION('ref_axis',(-1.,0.,0.));
#340=DIRECTION('center_axis',(0.,0.,1.));
#341=DIRECTION('ref_axis',(-1.,0.,0.));
#342=DIRECTION('center_axis',(0.,0.,-1.));
#343=DIRECTION('ref_axis',(-1.,0.,0.));
#344=DIRECTION('center_axis',(0.,0.,1.));
#345=DIRECTION('ref_axis',(-1.,0.,0.));
#346=DIRECTION('center_axis',(0.,0.,-1.));
#347=DIRECTION('ref_axis',(-1.,0.,0.));
#348=DIRECTION('center_axis',(0.,0.,1.));
#349=DIRECTION('ref_axis',(-1.,0.,0.));
#350=DIRECTION('center_axis',(0.,0.,1.));
#351=DIRECTION('ref_axis',(-1.,0.,0.));
#352=DIRECTION('center_axis',(0.,0.,-1.));
#353=DIRECTION('ref_axis',(-1.,0.,0.));
#354=DIRECTION('center_axis',(0.,0.,-1.));
#355=DIRECTION('ref_axis',(-1.,0.,0.));
#356=DIRECTION('center_axis',(0.,0.,-1.));
#357=DIRECTION('ref_axis',(-1.,0.,0.));
#358=DIRECTION('center_axis',(0.,0.,-1.));
#359=DIRECTION('ref_axis',(-1.,0.,0.));
#360=DIRECTION('center_axis',(0.,0.,-1.));
#361=DIRECTION('ref_axis',(-1.,0.,0.));
#362=DIRECTION('center_axis',(0.,0.,1.));
#363=DIRECTION('ref_axis',(-1.,0.,0.));
#364=DIRECTION('center_axis',(0.,0.,1.));
#365=DIRECTION('ref_axis',(-1.,0.,0.));
#366=DIRECTION('center_axis',(0.,0.,-1.));
#367=DIRECTION('ref_axis',(-1.,0.,0.));
#368=DIRECTION('center_axis',(0.,1.,0.));
#369=DIRECTION('ref_axis',(-1.,0.,0.));
#370=DIRECTION('center_axis',(0.,1.,0.));
#371=DIRECTION('ref_axis',(-1.,0.,0.));
#372=DIRECTION('center_axis',(0.,1.,0.));
#373=DIRECTION('ref_axis',(-1.,0.,0.));
#374=DIRECTION('center_axis',(0.,1.,0.));
#375=DIRECTION('ref_axis',(-1.,0.,0.));
#376=DIRECTION('center_axis',(0.,1.,0.));
#377=DIRECTION('ref_axis',(-1.,0.,0.));
#378=CARTESIAN_POINT('',(0.,0.,0.));
#379=CARTESIAN_POINT('Origin',(-9.875,-9.875,6.));
#380=CARTESIAN_POINT('',(-8.175,5.53940430010303,7.7));
#381=CARTESIAN_POINT('',(-7.875,5.44655854645849,8.));
#382=CARTESIAN_POINT('Ctrl Pts',(-8.175,5.53940430010304,7.7));
#383=CARTESIAN_POINT('Ctrl Pts',(-8.02373230382745,5.4929814232806,7.85126769617255));
#384=CARTESIAN_POINT('Ctrl Pts',(-7.875,5.44655854645849,8.));
#385=CARTESIAN_POINT('',(-8.175,-5.53940430010303,7.7));
#386=CARTESIAN_POINT('Origin',(0.,0.,15.875));
#387=CARTESIAN_POINT('',(-7.875,-5.44655854645849,8.));
#388=CARTESIAN_POINT('Ctrl Pts',(-7.875,-5.44655854645849,8.));
#389=CARTESIAN_POINT('Ctrl Pts',(-8.02373230382745,-5.4929814232806,7.85126769617255));
#390=CARTESIAN_POINT('Ctrl Pts',(-8.175,-5.53940430010304,7.7));
#391=CARTESIAN_POINT('',(-7.875,-4.9375,8.));
#392=CARTESIAN_POINT('Origin',(-0.5,-9.875,-7.5));
#393=CARTESIAN_POINT('',(-0.5,9.86233364878719,-7.5));
#394=CARTESIAN_POINT('',(-0.5,9.86233364878719,-7.7));
#395=CARTESIAN_POINT('',(-0.5,9.86233364878719,0.));
#396=CARTESIAN_POINT('',(-0.5,-9.86233364878719,-7.5));
#397=CARTESIAN_POINT('',(-0.5,-9.875,-7.5));
#398=CARTESIAN_POINT('',(-0.5,-9.86233364878719,-7.7));
#399=CARTESIAN_POINT('',(-0.5,-9.86233364878719,0.));
#400=CARTESIAN_POINT('',(-0.5,-9.56193625789254,-8.));
#401=CARTESIAN_POINT('',(-0.5,-9.71213495333986,-7.85));
#402=CARTESIAN_POINT('',(-0.5,9.56193625789254,-8.));
#403=CARTESIAN_POINT('',(-0.5,-4.9375,-8.));
#404=CARTESIAN_POINT('',(-0.5,9.71213495333986,-7.85));
#405=CARTESIAN_POINT('Origin',(0.5,-9.875,-7.5));
#406=CARTESIAN_POINT('',(0.5,9.86233364878719,-7.5));
#407=CARTESIAN_POINT('Origin',(0.,0.,-7.5));
#408=CARTESIAN_POINT('',(0.5,-9.86233364878719,-7.5));
#409=CARTESIAN_POINT('',(0.5,-9.875,-7.5));
#410=CARTESIAN_POINT('Origin',(0.,0.,-7.5));
#411=CARTESIAN_POINT('Origin',(0.5,-9.875,-8.));
#412=CARTESIAN_POINT('',(0.5,9.86233364878719,-7.7));
#413=CARTESIAN_POINT('',(0.5,9.86233364878719,0.));
#414=CARTESIAN_POINT('',(0.5,9.56193625789254,-8.));
#415=CARTESIAN_POINT('',(0.5,9.71213495333986,-7.85));
#416=CARTESIAN_POINT('',(0.5,-9.56193625789254,-8.));
#417=CARTESIAN_POINT('',(0.5,-4.9375,-8.));
#418=CARTESIAN_POINT('',(0.5,-9.86233364878719,-7.7));
#419=CARTESIAN_POINT('',(0.5,-9.71213495333986,-7.85));
#420=CARTESIAN_POINT('',(0.5,-9.86233364878719,0.));
#421=CARTESIAN_POINT('Origin',(7.875,-9.875,8.));
#422=CARTESIAN_POINT('',(7.875,5.44655854645849,8.));
#423=CARTESIAN_POINT('',(8.175,5.53940430010303,7.7));
#424=CARTESIAN_POINT('Ctrl Pts',(7.875,5.44655854645849,8.));
#425=CARTESIAN_POINT('Ctrl Pts',(8.02373230382745,5.4929814232806,7.85126769617255));
#426=CARTESIAN_POINT('Ctrl Pts',(8.175,5.53940430010304,7.7));
#427=CARTESIAN_POINT('',(7.875,-5.44655854645849,8.));
#428=CARTESIAN_POINT('',(7.875,-4.9375,8.));
#429=CARTESIAN_POINT('',(8.175,-5.53940430010303,7.7));
#430=CARTESIAN_POINT('Ctrl Pts',(8.175,-5.53940430010304,7.7));
#431=CARTESIAN_POINT('Ctrl Pts',(8.02373230382745,-5.4929814232806,7.85126769617255));
#432=CARTESIAN_POINT('Ctrl Pts',(7.875,-5.44655854645849,8.));
#433=CARTESIAN_POINT('Origin',(0.,0.,15.875));
#434=CARTESIAN_POINT('Origin',(0.,0.,-8.));
#435=CARTESIAN_POINT('Origin',(0.,0.,-8.));
#436=CARTESIAN_POINT('Origin',(0.,0.,-7.85));
#437=CARTESIAN_POINT('Origin',(0.,0.,-7.7));
#438=CARTESIAN_POINT('Origin',(0.,0.,0.));
#439=CARTESIAN_POINT('Origin',(0.,0.,-7.7));
#440=CARTESIAN_POINT('',(-4.05,9.00628252943466,0.));
#441=CARTESIAN_POINT('Ctrl Pts',(-4.05,9.00628252943466,0.));
#442=CARTESIAN_POINT('Ctrl Pts',(-4.05,9.00628252943466,-0.515487322767273));
#443=CARTESIAN_POINT('Ctrl Pts',(-3.94572928152796,9.05522567057879,-1.06046954689673));
#444=CARTESIAN_POINT('Ctrl Pts',(-3.5307034401256,9.22496726490894,-2.05609166036442));
#445=CARTESIAN_POINT('Ctrl Pts',(-3.22019696380603,9.3426255623576,-2.50736796380501));
#446=CARTESIAN_POINT('Ctrl Pts',(-2.50776992222081,9.55850920593044,-3.21979500539023));
#447=CARTESIAN_POINT('Ctrl Pts',(-2.05634288018449,9.67168681734496,-3.53060549458903));
#448=CARTESIAN_POINT('Ctrl Pts',(-1.06012737645445,9.83088001729209,-3.94586513930536));
#449=CARTESIAN_POINT('Ctrl Pts',(-0.51490596463615,9.875,-4.05));
#450=CARTESIAN_POINT('Ctrl Pts',(0.51490596463615,9.875,-4.05));
#451=CARTESIAN_POINT('Ctrl Pts',(1.06012737645445,9.83088001729209,-3.94586513930536));
#452=CARTESIAN_POINT('Ctrl Pts',(2.05634288018449,9.67168681734496,-3.53060549458903));
#453=CARTESIAN_POINT('Ctrl Pts',(2.50776992222081,9.55850920593044,-3.21979500539023));
#454=CARTESIAN_POINT('Ctrl Pts',(3.22019696380603,9.3426255623576,-2.50736796380501));
#455=CARTESIAN_POINT('Ctrl Pts',(3.5307034401256,9.22496726490894,-2.05609166036442));
#456=CARTESIAN_POINT('Ctrl Pts',(3.94572928152796,9.05522567057879,-1.06046954689673));
#457=CARTESIAN_POINT('Ctrl Pts',(4.05,9.00628252943466,-0.515487322767272));
#458=CARTESIAN_POINT('Ctrl Pts',(4.05,9.00628252943466,0.515487322767273));
#459=CARTESIAN_POINT('Ctrl Pts',(3.94572928152796,9.05522567057879,1.06046954689673));
#460=CARTESIAN_POINT('Ctrl Pts',(3.5307034401256,9.22496726490894,2.05609166036442));
#461=CARTESIAN_POINT('Ctrl Pts',(3.22019696380603,9.3426255623576,2.50736796380501));
#462=CARTESIAN_POINT('Ctrl Pts',(2.50776992222081,9.55850920593044,3.21979500539023));
#463=CARTESIAN_POINT('Ctrl Pts',(2.05634288018449,9.67168681734496,3.53060549458903));
#464=CARTESIAN_POINT('Ctrl Pts',(1.06012737645445,9.83088001729209,3.94586513930536));
#465=CARTESIAN_POINT('Ctrl Pts',(0.514905964636151,9.875,4.05));
#466=CARTESIAN_POINT('Ctrl Pts',(-0.51490596463615,9.875,4.05));
#467=CARTESIAN_POINT('Ctrl Pts',(-1.06012737645445,9.83088001729209,3.94586513930536));
#468=CARTESIAN_POINT('Ctrl Pts',(-2.05634288018449,9.67168681734496,3.53060549458903));
#469=CARTESIAN_POINT('Ctrl Pts',(-2.50776992222081,9.55850920593044,3.21979500539023));
#470=CARTESIAN_POINT('Ctrl Pts',(-3.22019696380603,9.3426255623576,2.50736796380501));
#471=CARTESIAN_POINT('Ctrl Pts',(-3.5307034401256,9.22496726490894,2.05609166036442));
#472=CARTESIAN_POINT('Ctrl Pts',(-3.94572928152796,9.05522567057879,1.06046954689673));
#473=CARTESIAN_POINT('Ctrl Pts',(-4.05,9.00628252943466,0.515487322767273));
#474=CARTESIAN_POINT('Ctrl Pts',(-4.05,9.00628252943466,1.38777878078145E-16));
#475=CARTESIAN_POINT('',(0.,-9.875,7.25));
#476=CARTESIAN_POINT('',(0.,-9.875,-7.25));
#477=CARTESIAN_POINT('Ctrl Pts',(0.,-9.875,7.25));
#478=CARTESIAN_POINT('Ctrl Pts',(0.951080729330811,-9.875,7.25));
#479=CARTESIAN_POINT('Ctrl Pts',(1.94060986896976,-9.72679338746932,7.05185737170901));
#480=CARTESIAN_POINT('Ctrl Pts',(3.71844272189251,-9.19508875395248,6.29824089661322));
#481=CARTESIAN_POINT('Ctrl Pts',(4.50859271211691,-8.81538042464508,5.74445561508803));
#482=CARTESIAN_POINT('Ctrl Pts',(5.75616984976696,-8.05759611770452,4.49687847743798));
#483=CARTESIAN_POINT('Ctrl Pts',(6.30278406775361,-7.61884294071894,3.70836971663516));
#484=CARTESIAN_POINT('Ctrl Pts',(7.04879817162159,-6.93442994566557,1.94718080522926));
#485=CARTESIAN_POINT('Ctrl Pts',(7.25,-6.70470916595194,0.969110533179141));
#486=CARTESIAN_POINT('Ctrl Pts',(7.25,-6.70470916595194,-0.969110533179141));
#487=CARTESIAN_POINT('Ctrl Pts',(7.04879817162159,-6.93442994566557,-1.94718080522926));
#488=CARTESIAN_POINT('Ctrl Pts',(6.30278406775361,-7.61884294071894,-3.70836971663516));
#489=CARTESIAN_POINT('Ctrl Pts',(5.75616984976697,-8.05759611770452,-4.49687847743798));
#490=CARTESIAN_POINT('Ctrl Pts',(4.50859271211692,-8.81538042464508,-5.74445561508802));
#491=CARTESIAN_POINT('Ctrl Pts',(3.71844272189251,-9.19508875395248,-6.29824089661322));
#492=CARTESIAN_POINT('Ctrl Pts',(1.94060986896977,-9.72679338746932,-7.05185737170901));
#493=CARTESIAN_POINT('Ctrl Pts',(0.951080729330813,-9.875,-7.25));
#494=CARTESIAN_POINT('Ctrl Pts',(5.55111512312578E-16,-9.875,-7.25));
#495=CARTESIAN_POINT('Ctrl Pts',(-5.55111512312578E-16,-9.875,-7.25));
#496=CARTESIAN_POINT('Ctrl Pts',(-0.951080729330812,-9.875,-7.25));
#497=CARTESIAN_POINT('Ctrl Pts',(-1.94060986896976,-9.72679338746932,-7.05185737170901));
#498=CARTESIAN_POINT('Ctrl Pts',(-3.71844272189251,-9.19508875395248,-6.29824089661322));
#499=CARTESIAN_POINT('Ctrl Pts',(-4.50859271211691,-8.81538042464508,-5.74445561508803));
#500=CARTESIAN_POINT('Ctrl Pts',(-5.75616984976696,-8.05759611770452,-4.49687847743798));
#501=CARTESIAN_POINT('Ctrl Pts',(-6.30278406775361,-7.61884294071894,-3.70836971663516));
#502=CARTESIAN_POINT('Ctrl Pts',(-7.04879817162159,-6.93442994566557,-1.94718080522926));
#503=CARTESIAN_POINT('Ctrl Pts',(-7.25,-6.70470916595194,-0.969110533179141));
#504=CARTESIAN_POINT('Ctrl Pts',(-7.25,-6.70470916595194,0.));
#505=CARTESIAN_POINT('Ctrl Pts',(-7.25,-6.70470916595194,0.96911053317914));
#506=CARTESIAN_POINT('Ctrl Pts',(-7.04879817162159,-6.93442994566557,1.94718080522926));
#507=CARTESIAN_POINT('Ctrl Pts',(-6.30278406775361,-7.61884294071894,3.70836971663516));
#508=CARTESIAN_POINT('Ctrl Pts',(-5.75616984976696,-8.05759611770452,4.49687847743798));
#509=CARTESIAN_POINT('Ctrl Pts',(-4.50859271211691,-8.81538042464508,5.74445561508802));
#510=CARTESIAN_POINT('Ctrl Pts',(-3.71844272189251,-9.19508875395248,6.29824089661322));
#511=CARTESIAN_POINT('Ctrl Pts',(-1.94060986896977,-9.72679338746932,7.05185737170901));
#512=CARTESIAN_POINT('Ctrl Pts',(-0.951080729330812,-9.875,7.25));
#513=CARTESIAN_POINT('Ctrl Pts',(0.,-9.875,7.25));
#514=CARTESIAN_POINT('Origin',(0.,0.,7.7));
#515=CARTESIAN_POINT('Origin',(0.,0.,7.7));
#516=CARTESIAN_POINT('Origin',(0.,0.,8.));
#517=CARTESIAN_POINT('Origin',(0.,0.,8.));
#518=CARTESIAN_POINT('Origin',(0.,0.,8.));
#519=CARTESIAN_POINT('Origin',(0.,0.,7.85));
#520=CARTESIAN_POINT('Origin',(0.,0.,7.85));
#521=CARTESIAN_POINT('Origin',(0.,0.,-7.85));
#522=CARTESIAN_POINT('Origin',(0.,0.,-8.));
#523=CARTESIAN_POINT('Origin',(0.,0.,-8.));
#524=CARTESIAN_POINT('Origin',(0.,1.005,0.));
#525=CARTESIAN_POINT('',(-7.25,1.005,0.));
#526=CARTESIAN_POINT('Origin',(0.,1.005,0.));
#527=CARTESIAN_POINT('',(4.05,1.005,-4.95965573298063E-16));
#528=CARTESIAN_POINT('Origin',(0.,1.005,0.));
#529=CARTESIAN_POINT('Origin',(0.,-4.435,0.));
#530=CARTESIAN_POINT('Origin',(0.,22.3138956008124,0.));
#531=UNCERTAINTY_MEASURE_WITH_UNIT(LENGTH_MEASURE(0.01),#535,
'DISTANCE_ACCURACY_VALUE',
'Maximum model space distance between geometric entities at asserted c
onnectivities');
#532=UNCERTAINTY_MEASURE_WITH_UNIT(LENGTH_MEASURE(1.E-6),#535,
'DISTANCE_ACCURACY_VALUE',
'Maximum model space distance between geometric entities at asserted c
onnectivities');
#533=(
GEOMETRIC_REPRESENTATION_CONTEXT(3)
GLOBAL_UNCERTAINTY_ASSIGNED_CONTEXT((#531))
GLOBAL_UNIT_ASSIGNED_CONTEXT((#535,#538,#536))
REPRESENTATION_CONTEXT('','3D')
);
#534=(
GEOMETRIC_REPRESENTATION_CONTEXT(3)
GLOBAL_UNCERTAINTY_ASSIGNED_CONTEXT((#532))
GLOBAL_UNIT_ASSIGNED_CONTEXT((#535,#538,#536))
REPRESENTATION_CONTEXT('','3D')
);
#535=(
LENGTH_UNIT()
NAMED_UNIT(*)
SI_UNIT(.MILLI.,.METRE.)
);
#536=(
NAMED_UNIT(*)
SI_UNIT($,.STERADIAN.)
SOLID_ANGLE_UNIT()
);
#537=DIMENSIONAL_EXPONENTS(0.,0.,0.,0.,0.,0.,0.);
#538=(
CONVERSION_BASED_UNIT('degree',#540)
NAMED_UNIT(#537)
PLANE_ANGLE_UNIT()
);
#539=(
NAMED_UNIT(*)
PLANE_ANGLE_UNIT()
SI_UNIT($,.RADIAN.)
);
#540=PLANE_ANGLE_MEASURE_WITH_UNIT(PLANE_ANGLE_MEASURE(0.01745329252),#539);
#541=SHAPE_DEFINITION_REPRESENTATION(#542,#543);
#542=PRODUCT_DEFINITION_SHAPE('',$,#545);
#543=SHAPE_REPRESENTATION('',(#271),#533);
#544=PRODUCT_DEFINITION_CONTEXT('part definition',#549,'design');
#545=PRODUCT_DEFINITION('SV1800V_A','SV1800V_A',#546,#544);
#546=PRODUCT_DEFINITION_FORMATION('',$,#551);
#547=PRODUCT_RELATED_PRODUCT_CATEGORY('SV1800V_A','SV1800V_A',(#551));
#548=APPLICATION_PROTOCOL_DEFINITION('international standard',
'automotive_design',2009,#549);
#549=APPLICATION_CONTEXT(
'Core Data for Automotive Mechanical Design Process');
#550=PRODUCT_CONTEXT('part definition',#549,'mechanical');
#551=PRODUCT('SV1800V_A','SV1800V_A',$,(#550));
#552=PRESENTATION_STYLE_ASSIGNMENT((#553));
#553=SURFACE_STYLE_USAGE(.BOTH.,#554);
#554=SURFACE_SIDE_STYLE($,(#555));
#555=SURFACE_STYLE_FILL_AREA(#556);
#556=FILL_AREA_STYLE($,(#557));
#557=FILL_AREA_STYLE_COLOUR($,#558);
#558=COLOUR_RGB('',0.67843137254902,0.768627450980392,0.811764705882353);
ENDSEC;
END-ISO-10303-21;
