                                                                        S      1
,,7HSL8250N,27HNo Iges File Name specified,23HAutoDesk Inventor R11.0,  G      1
37HAutoDesk Inventor Iges Exporter R11.0,32,38,6,99,15,7HSL8250N,1.0D0, G      2
2,2HMM,1,.08D0,15H20070910.120521,.01D0,10000.0D0,19HNo Author specifiedG      3
,25HNo Organization specified,11,0,,33HNo Application Protocol specifiedG      4
;                                                                       G      5
     116       1       0       0       0       0       0       000010000D      1
     116       0       0       1       0                               0D      2
     123       2       0       0       0       0       0       000010200D      3
     123       0       0       1       0                               0D      4
     192       3       0       0       0       0       0       000010000D      5
     192       0       0       1       1                               0D      6
     123       4       0       0       0       0       0       000010200D      7
     123       0       0       1       0                               0D      8
     502       5       0       0       0       0       0       000010000D      9
     502       0       0       4       1                               0D     10
     110       9       0       0       0       0       0       000010000D     11
     110       0       0       1       0                               0D     12
     504      10       0       0       0       0       0       000010001D     13
     504       0       0       3       1                               0D     14
     100      13       0       0       0       0      17       000010000D     15
     100       0       0       1       0                               0D     16
     124      14       0       0       0       0       0       000000000D     17
     124       0       0       2       0                               0D     18
     110      16       0       0       0       0       0       000010000D     19
     110       0       0       2       0                               0D     20
     100      18       0       0       0       0      23       000010000D     21
     100       0       0       1       0                               0D     22
     124      19       0       0       0       0       0       000000000D     23
     124       0       0       2       0                               0D     24
     508      21       0       0       0       0       0       000010000D     25
     508       0       0       1       1                               0D     26
     510      22       0       0       0       0       0       000010001D     27
     510       0       0       1       1                               0D     28
     116      23       0       0       0       0       0       000010000D     29
     116       0       0       1       0                               0D     30
     123      24       0       0       0       0       0       000010200D     31
     123       0       0       1       0                               0D     32
     192      25       0       0       0       0       0       000010000D     33
     192       0       0       1       1                               0D     34
     123      26       0       0       0       0       0       000010200D     35
     123       0       0       1       0                               0D     36
     110      27       0       0       0       0       0       000010000D     37
     110       0       0       1       0                               0D     38
     100      28       0       0       0       0      41       000010000D     39
     100       0       0       1       0                               0D     40
     124      29       0       0       0       0       0       000000000D     41
     124       0       0       2       0                               0D     42
     110      31       0       0       0       0       0       000010000D     43
     110       0       0       2       0                               0D     44
     100      33       0       0       0       0      47       000010000D     45
     100       0       0       1       0                               0D     46
     124      34       0       0       0       0       0       000000000D     47
     124       0       0       2       0                               0D     48
     508      36       0       0       0       0       0       000010000D     49
     508       0       0       1       1                               0D     50
     510      37       0       0       0       0       0       000010001D     51
     510       0       0       1       1                               0D     52
     116      38       0       0       0       0       0       000010000D     53
     116       0       0       1       0                               0D     54
     123      39       0       0       0       0       0       000010200D     55
     123       0       0       1       0                               0D     56
     190      40       0       0       0       0       0       000010000D     57
     190       0       0       1       1                               0D     58
     123      41       0       0       0       0       0       000010200D     59
     123       0       0       1       0                               0D     60
     100      42       0       0       0       0      47       000010000D     61
     100       0       0       2       0                               0D     62
     508      44       0       0       0       0       0       000010000D     63
     508       0       0       1       1                               0D     64
     100      45       0       0       0       0      17       000010000D     65
     100       0       0       2       0                               0D     66
     508      47       0       0       0       0       0       000010000D     67
     508       0       0       1       1                               0D     68
     510      48       0       0       0       0       0       000010001D     69
     510       0       0       1       1                               0D     70
     116      49       0       0       0       0       0       000010000D     71
     116       0       0       1       0                               0D     72
     123      50       0       0       0       0       0       000010200D     73
     123       0       0       1       0                               0D     74
     192      51       0       0       0       0       0       000010000D     75
     192       0       0       1       1                               0D     76
     123      52       0       0       0       0       0       000010200D     77
     123       0       0       1       0                               0D     78
     100      53       0       0       0       0      41       000010000D     79
     100       0       0       2       0                               0D     80
     508      55       0       0       0       0       0       000010000D     81
     508       0       0       1       1                               0D     82
     510      56       0       0       0       0       0       000010001D     83
     510       0       0       1       1                               0D     84
     116      57       0       0       0       0       0       000010000D     85
     116       0       0       1       0                               0D     86
     123      58       0       0       0       0       0       000010200D     87
     123       0       0       1       0                               0D     88
     190      59       0       0       0       0       0       000010000D     89
     190       0       0       1       1                               0D     90
     123      60       0       0       0       0       0       000010200D     91
     123       0       0       1       0                               0D     92
     508      61       0       0       0       0       0       000010000D     93
     508       0       0       1       1                               0D     94
     510      62       0       0       0       0       0       000010001D     95
     510       0       0       1       1                               0D     96
     116      63       0       0       0       0       0       000010000D     97
     116       0       0       1       0                               0D     98
     123      64       0       0       0       0       0       000010200D     99
     123       0       0       1       0                               0D    100
     192      65       0       0       0       0       0       000010000D    101
     192       0       0       1       1                               0D    102
     123      66       0       0       0       0       0       000010200D    103
     123       0       0       1       0                               0D    104
     100      67       0       0       0       0      23       000010000D    105
     100       0       0       2       0                               0D    106
     508      69       0       0       0       0       0       000010000D    107
     508       0       0       1       1                               0D    108
     510      70       0       0       0       0       0       000010001D    109
     510       0       0       1       1                               0D    110
     116      71       0       0       0       0       0       000010000D    111
     116       0       0       1       0                               0D    112
     123      72       0       0       0       0       0       000010200D    113
     123       0       0       1       0                               0D    114
     190      73       0       0       0       0       0       000010000D    115
     190       0       0       1       1                               0D    116
     123      74       0       0       0       0       0       000010200D    117
     123       0       0       1       0                               0D    118
     508      75       0       0       0       0       0       000010000D    119
     508       0       0       1       1                               0D    120
     510      76       0       0       0       0       0       000010001D    121
     510       0       0       1       1                               0D    122
     514      77       0       0       0       0       0       000010000D    123
     514       0       0       1       1                               0D    124
     186      78       0       0       1       0       0       000000000D    125
     186       0    -127       1       0                               0D    126
     314      79       0       0       0       0       0       000000200D    127
     314       0       0       2       0                               0D    128
116,0.0D0,0.0D0,0.0D0,0;                                               1P      1
123,0.0D0,1.0D0,0.0D0;                                                 3P      2
192,1,3,10.0D0,7;                                                      5P      3
123,1.0D0,0.0D0,0.0D0;                                                 7P      4
502,8,10.0D0,30.0D0,0.0D0,10.0D0,0.0D0,0.0D0,-10.0D0,30.0D0,           9P      5
1.22460635382238D-15,-10.0D0,0.0D0,1.22460635382238D-15,-20.0D0,       9P      6
137.0D0,0.0D0,-20.0D0,30.0D0,0.0D0,20.0D0,137.0D0,                     9P      7
-2.44921270764475D-15,20.0D0,30.0D0,-2.44921270764475D-15;             9P      8
110,10.0D0,30.0D0,0.0D0,10.0D0,0.0D0,0.0D0;                           11P      9
504,12,11,9,1,9,2,15,9,1,9,3,19,9,3,9,4,21,9,2,9,4,37,9,5,9,6,        13P     10
39,9,5,9,7,43,9,7,9,8,45,9,6,9,8,61,9,8,9,6,65,9,3,9,1,79,9,7,9,      13P     11
5,105,9,4,9,2;                                                        13P     12
100,0.0D0,0.0D0,0.0D0,10.0D0,0.0D0,-10.0D0,1.22460635382238D-15;      15P     13
124,1.0D0,0.0D0,0.0D0,0.0D0,0.0D0,0.0D0,-1.0D0,30.0D0,0.0D0,          17P     14
1.0D0,0.0D0,0.0D0;                                                    17P     15
110,-10.0D0,30.0D0,1.22460635382238D-15,-10.0D0,0.0D0,                19P     16
1.22460635382238D-15;                                                 19P     17
100,0.0D0,0.0D0,0.0D0,10.0D0,0.0D0,-10.0D0,1.22460635382238D-15;      21P     18
124,1.0D0,0.0D0,0.0D0,0.0D0,0.0D0,0.0D0,-1.0D0,0.0D0,0.0D0,           23P     19
1.0D0,0.0D0,0.0D0;                                                    23P     20
508,4,0,13,1,0,0,0,13,2,1,0,0,13,3,1,0,0,13,4,0,0;                    25P     21
510,5,1,1,25;                                                         27P     22
116,0.0D0,30.0D0,0.0D0,0;                                             29P     23
123,0.0D0,1.0D0,0.0D0;                                                31P     24
192,29,31,20.0D0,35;                                                  33P     25
123,-1.0D0,0.0D0,0.0D0;                                               35P     26
110,-20.0D0,137.0D0,0.0D0,-20.0D0,30.0D0,0.0D0;                       37P     27
100,0.0D0,0.0D0,0.0D0,20.0D0,0.0D0,-20.0D0,2.44921270764475D-15;      39P     28
124,-1.0D0,0.0D0,0.0D0,0.0D0,0.0D0,0.0D0,-1.0D0,137.0D0,0.0D0,        41P     29
-1.0D0,0.0D0,0.0D0;                                                   41P     30
110,20.0D0,137.0D0,-2.44921270764475D-15,20.0D0,30.0D0,               43P     31
-2.44921270764475D-15;                                                43P     32
100,0.0D0,0.0D0,0.0D0,20.0D0,0.0D0,-20.0D0,2.44921270764475D-15;      45P     33
124,-1.0D0,0.0D0,0.0D0,0.0D0,0.0D0,0.0D0,-1.0D0,30.0D0,0.0D0,         47P     34
-1.0D0,0.0D0,0.0D0;                                                   47P     35
508,4,0,13,5,0,0,0,13,6,1,0,0,13,7,1,0,0,13,8,0,0;                    49P     36
510,33,1,1,49;                                                        51P     37
116,0.0D0,30.0D0,0.0D0,0;                                             53P     38
123,0.0D0,-1.0D0,0.0D0;                                               55P     39
190,53,55,59;                                                         57P     40
123,0.0D0,0.0D0,-1.0D0;                                               59P     41
100,0.0D0,0.0D0,0.0D0,-20.0D0,2.44921270764475D-15,20.0D0,            61P     42
-4.89842541528951D-15;                                                61P     43
508,2,0,13,9,1,0,0,13,8,1,0;                                          63P     44
100,0.0D0,0.0D0,0.0D0,-10.0D0,1.22460635382238D-15,10.0D0,            65P     45
-2.44921270764475D-15;                                                65P     46
508,2,0,13,10,0,0,0,13,2,0,0;                                         67P     47
510,57,2,1,63,67;                                                     69P     48
116,0.0D0,30.0D0,0.0D0,0;                                             71P     49
123,0.0D0,1.0D0,0.0D0;                                                73P     50
192,71,73,20.0D0,77;                                                  75P     51
123,-1.0D0,0.0D0,0.0D0;                                               77P     52
100,0.0D0,0.0D0,0.0D0,-20.0D0,2.44921270764475D-15,20.0D0,            79P     53
-4.89842541528951D-15;                                                79P     54
508,4,0,13,5,1,0,0,13,9,0,0,0,13,7,0,0,0,13,11,1,0;                   81P     55
510,75,1,1,81;                                                        83P     56
116,0.0D0,137.0D0,0.0D0,0;                                            85P     57
123,0.0D0,1.0D0,0.0D0;                                                87P     58
190,85,87,91;                                                         89P     59
123,0.0D0,0.0D0,1.0D0;                                                91P     60
508,2,0,13,11,0,0,0,13,6,0,0;                                         93P     61
510,89,1,1,93;                                                        95P     62
116,0.0D0,0.0D0,0.0D0,0;                                              97P     63
123,0.0D0,1.0D0,0.0D0;                                                99P     64
192,97,99,10.0D0,103;                                                101P     65
123,1.0D0,0.0D0,0.0D0;                                               103P     66
100,0.0D0,0.0D0,0.0D0,-10.0D0,1.22460635382238D-15,10.0D0,           105P     67
-2.44921270764475D-15;                                               105P     68
508,4,0,13,1,1,0,0,13,12,0,0,0,13,3,0,0,0,13,10,1,0;                 107P     69
510,101,1,1,107;                                                     109P     70
116,0.0D0,0.0D0,0.0D0,0;                                             111P     71
123,0.0D0,-1.0D0,0.0D0;                                              113P     72
190,111,113,117;                                                     115P     73
123,0.0D0,0.0D0,-1.0D0;                                              117P     74
508,2,0,13,12,1,0,0,13,4,1,0;                                        119P     75
510,115,1,1,119;                                                     121P     76
514,7,27,1,51,1,69,1,83,1,95,1,109,1,121,1;                          123P     77
186,123,1,0;                                                         125P     78
314,84.7058832645416D0,83.9215695858002D0,83.9215695858002D0,        127P     79
23HAluminium (gleichmäßig);                                          127P     80
S      1G      5D    128P     80                                        T      1
