ISO-10303-21;
HEADER;
/****************************************************************
 * Generated by software with PDE/Lib inside                    *
 * PDElib Version v51a, created Tue 12/06/2005                  *
 * International Technegroup Inc. (www.iti-oh.com)              *
 ****************************************************************/
FILE_DESCRIPTION((''),'2;1');
FILE_NAME('U:\\Paletti Norm\\Paletti Artikel f. Palkat\\STEP\\SL1502S.ipt.step','2007-09-10T15:14:27',(''),(''),'Autodesk Inventor 11','Autodesk Inventor 11','');
FILE_SCHEMA(('AUTOMOTIVE_DESIGN { 1 0 10303 214 1 1 1 1 }'));
ENDSEC;
DATA;
#5=APPLICATION_CONTEXT('automotive design');
#6=APPLICATION_PROTOCOL_DEFINITION('International Standard','automotive_design',2001,#5);
#7=PRODUCT_CONTEXT('',#5,'mechanical');
#8=PRODUCT('SL1502S','SL1502S',$,(#7));
#9=PRODUCT_RELATED_PRODUCT_CATEGORY('part',$,(#8));
#10=PRODUCT_DEFINITION_FORMATION('',$,#8);
#11=PRODUCT_DEFINITION_CONTEXT('part definition',#5,'design');
#12=PRODUCT_DEFINITION('',$,#10,#11);
#18=(NAMED_UNIT(*)PLANE_ANGLE_UNIT()SI_UNIT($,.RADIAN.));
#19=DIMENSIONAL_EXPONENTS(0.0,0.0,0.0,0.0,0.0,0.0,0.0);
#20=PLANE_ANGLE_MEASURE_WITH_UNIT(PLANE_ANGLE_MEASURE(0.017453292500000),#18);
#24=(CONVERSION_BASED_UNIT('DEGREE',#20)NAMED_UNIT(#19)PLANE_ANGLE_UNIT());
#28=(NAMED_UNIT(*)SI_UNIT($,.STERADIAN.)SOLID_ANGLE_UNIT());
#32=(LENGTH_UNIT()NAMED_UNIT(*)SI_UNIT(.MILLI.,.METRE.));
#34=UNCERTAINTY_MEASURE_WITH_UNIT(LENGTH_MEASURE(0.010000000000000),#32,'DISTANCE_ACCURACY_VALUE','');
#36=(GEOMETRIC_REPRESENTATION_CONTEXT(3)GLOBAL_UNCERTAINTY_ASSIGNED_CONTEXT((#34))GLOBAL_UNIT_ASSIGNED_CONTEXT((#24,#28,#32))REPRESENTATION_CONTEXT('None','None'));
#37=AXIS2_PLACEMENT_3D('',#38,#39,#40);
#38=CARTESIAN_POINT('',(0.0,0.0,0.0));
#39=DIRECTION('',(0.0,0.0,1.0));
#40=DIRECTION('',(1.0,0.0,0.0));
#41=SHAPE_REPRESENTATION('',(#37),#36);
#42=PRODUCT_DEFINITION_SHAPE('','',#12);
#43=SHAPE_DEFINITION_REPRESENTATION(#42,#41);
#44=CARTESIAN_POINT('',(-58.0,5.500000000000000,1.199999999999986));
#45=CARTESIAN_POINT('',(-47.0,5.500000000000000,1.199999999999981));
#46=CARTESIAN_POINT('',(-58.0,-5.500000000000000,1.199999999999986));
#47=CARTESIAN_POINT('',(-47.0,-5.500000000000000,1.199999999999981));
#48=B_SPLINE_SURFACE_WITH_KNOTS('',1,1,((#44,#46),(#45,#47)),.UNSPECIFIED.,.F.,.F.,.U.,(2,2),(2,2),(0.0,11.0),(0.0,11.0),.UNSPECIFIED.);
#49=CARTESIAN_POINT('',(-47.0,0.0,1.199999999999981));
#50=VERTEX_POINT('',#49);
#51=CARTESIAN_POINT('',(-52.500000000000000,0.0,1.199999999999983));
#52=DIRECTION('',(0.0,0.0,1.0));
#53=DIRECTION('',(1.0,0.0,0.0));
#54=AXIS2_PLACEMENT_3D('',#51,#52,#53);
#55=CIRCLE('',#54,5.500000000000000);
#56=EDGE_CURVE('',#50,#50,#55,.T.);
#57=ORIENTED_EDGE('',*,*,#56,.T.);
#58=EDGE_LOOP('',(#57));
#59=FACE_OUTER_BOUND('',#58,.T.);
#60=CARTESIAN_POINT('',(-55.799999999999997,0.0,1.199999999999981));
#61=VERTEX_POINT('',#60);
#62=CARTESIAN_POINT('',(-52.500000000000000,0.0,1.199999999999979));
#63=DIRECTION('',(0.0,0.0,1.0));
#64=DIRECTION('',(1.0,0.0,0.0));
#65=AXIS2_PLACEMENT_3D('',#62,#63,#64);
#66=CIRCLE('',#65,3.300000000000000);
#67=EDGE_CURVE('',#61,#61,#66,.T.);
#68=ORIENTED_EDGE('',*,*,#67,.F.);
#69=EDGE_LOOP('',(#68));
#70=FACE_BOUND('',#69,.T.);
#71=ADVANCED_FACE('',(#59,#70),#48,.F.);
#72=CARTESIAN_POINT('',(-58.0,-6.735335E-016,5.999999999999990));
#73=CARTESIAN_POINT('',(-58.0,-6.735335E-016,1.199999999999981));
#74=CARTESIAN_POINT('',(-58.0,-5.500000000000000,5.999999999999990));
#75=CARTESIAN_POINT('',(-58.0,-5.500000000000000,1.199999999999981));
#76=CARTESIAN_POINT('',(-52.500000000000000,-5.500000000000000,5.999999999999988));
#77=CARTESIAN_POINT('',(-52.500000000000000,-5.500000000000000,1.199999999999978));
#78=CARTESIAN_POINT('',(-47.000000000000007,-5.499999999999998,5.999999999999985));
#79=CARTESIAN_POINT('',(-47.000000000000007,-5.499999999999998,1.199999999999976));
#80=CARTESIAN_POINT('',(-47.0,6.735335E-016,5.999999999999985));
#81=CARTESIAN_POINT('',(-47.0,6.735335E-016,1.199999999999976));
#82=CARTESIAN_POINT('',(-47.000000000000007,5.500000000000000,5.999999999999985));
#83=CARTESIAN_POINT('',(-47.000000000000007,5.500000000000000,1.199999999999976));
#84=CARTESIAN_POINT('',(-52.500000000000000,5.500000000000000,5.999999999999988));
#85=CARTESIAN_POINT('',(-52.500000000000000,5.500000000000000,1.199999999999978));
#86=CARTESIAN_POINT('',(-58.0,5.499999999999998,5.999999999999990));
#87=CARTESIAN_POINT('',(-58.0,5.499999999999998,1.199999999999981));
#88=CARTESIAN_POINT('',(-58.0,-6.735335E-016,5.999999999999990));
#89=CARTESIAN_POINT('',(-58.0,-6.735335E-016,1.199999999999981));
#97=(BOUNDED_SURFACE()B_SPLINE_SURFACE(1,2,((#72,#74,#76,#78,#80,#82,#84,#86,#88),(#73,#75,#77,#79,#81,#83,#85,#87,#89)),.UNSPECIFIED.,.F.,.T.,.U.)B_SPLINE_SURFACE_WITH_KNOTS((2,2),(3,2,2,2,3),(-0.436363636363637,0.436363636363637),(0.0,8.639379797371930,17.278759594743860,25.918139392115794,34.557519189487721),.UNSPECIFIED.)GEOMETRIC_REPRESENTATION_ITEM()RATIONAL_B_SPLINE_SURFACE(((1.0,0.707106781186548,1.0,0.707106781186548,1.0,0.707106781186548,1.0,0.707106781186548,1.0),(1.0,0.707106781186548,1.0,0.707106781186548,1.0,0.707106781186548,1.0,0.707106781186548,1.0)))REPRESENTATION_ITEM('')SURFACE());
#98=CARTESIAN_POINT('',(-47.0,0.0,5.999999999999981));
#99=VERTEX_POINT('',#98);
#100=CARTESIAN_POINT('',(-52.500000000000000,0.0,5.999999999999983));
#101=DIRECTION('',(0.0,0.0,-1.0));
#102=DIRECTION('',(1.0,0.0,0.0));
#103=AXIS2_PLACEMENT_3D('',#100,#101,#102);
#104=CIRCLE('',#103,5.500000000000000);
#105=EDGE_CURVE('',#99,#99,#104,.T.);
#106=ORIENTED_EDGE('',*,*,#105,.F.);
#107=EDGE_LOOP('',(#106));
#108=FACE_OUTER_BOUND('',#107,.T.);
#109=ORIENTED_EDGE('',*,*,#56,.F.);
#110=EDGE_LOOP('',(#109));
#111=FACE_BOUND('',#110,.T.);
#112=ADVANCED_FACE('',(#108,#111),#97,.F.);
#113=CARTESIAN_POINT('',(-55.800000000000004,-4.041201E-016,1.200000000000003));
#114=CARTESIAN_POINT('',(-55.800000000000004,-4.041201E-016,-1.421085E-014));
#115=CARTESIAN_POINT('',(-55.800000000000004,-3.299999999999996,1.200000000000003));
#116=CARTESIAN_POINT('',(-55.800000000000004,-3.299999999999996,-1.421085E-014));
#117=CARTESIAN_POINT('',(-52.500000000000007,-3.299999999999997,1.200000000000003));
#118=CARTESIAN_POINT('',(-52.500000000000007,-3.299999999999997,-1.421085E-014));
#119=CARTESIAN_POINT('',(-49.200000000000010,-3.299999999999996,1.200000000000003));
#120=CARTESIAN_POINT('',(-49.200000000000010,-3.299999999999996,-1.421085E-014));
#121=CARTESIAN_POINT('',(-49.200000000000010,4.041201E-016,1.200000000000003));
#122=CARTESIAN_POINT('',(-49.200000000000010,4.041201E-016,-1.421085E-014));
#123=CARTESIAN_POINT('',(-49.200000000000010,3.299999999999996,1.200000000000003));
#124=CARTESIAN_POINT('',(-49.200000000000010,3.299999999999996,-1.421085E-014));
#125=CARTESIAN_POINT('',(-52.500000000000007,3.299999999999997,1.200000000000003));
#126=CARTESIAN_POINT('',(-52.500000000000007,3.299999999999997,-1.421085E-014));
#127=CARTESIAN_POINT('',(-55.800000000000004,3.299999999999996,1.200000000000003));
#128=CARTESIAN_POINT('',(-55.800000000000004,3.299999999999996,-1.421085E-014));
#129=CARTESIAN_POINT('',(-55.800000000000004,-4.041201E-016,1.200000000000003));
#130=CARTESIAN_POINT('',(-55.800000000000004,-4.041201E-016,-1.421085E-014));
#138=(BOUNDED_SURFACE()B_SPLINE_SURFACE(1,2,((#113,#115,#117,#119,#121,#123,#125,#127,#129),(#114,#116,#118,#120,#122,#124,#126,#128,#130)),.UNSPECIFIED.,.F.,.T.,.U.)B_SPLINE_SURFACE_WITH_KNOTS((2,2),(3,2,2,2,3),(-35.589592218026972,-35.225955854390605),(0.0,5.183627878423159,10.367255756846317,15.550883635269477,20.734511513692635),.UNSPECIFIED.)GEOMETRIC_REPRESENTATION_ITEM()RATIONAL_B_SPLINE_SURFACE(((1.0,0.707106781186548,1.0,0.707106781186548,1.0,0.707106781186548,1.0,0.707106781186548,1.0),(1.0,0.707106781186548,1.0,0.707106781186548,1.0,0.707106781186548,1.0,0.707106781186548,1.0)))REPRESENTATION_ITEM('')SURFACE());
#139=CARTESIAN_POINT('',(-55.799999999999997,-4.041201E-016,-1.629807E-014));
#140=VERTEX_POINT('',#139);
#141=CARTESIAN_POINT('',(-52.500000000000000,0.0,-1.776357E-014));
#142=DIRECTION('',(0.0,0.0,1.0));
#143=DIRECTION('',(1.0,0.0,0.0));
#144=AXIS2_PLACEMENT_3D('',#141,#142,#143);
#145=CIRCLE('',#144,3.300000000000000);
#146=EDGE_CURVE('',#140,#140,#145,.T.);
#147=ORIENTED_EDGE('',*,*,#146,.F.);
#148=EDGE_LOOP('',(#147));
#149=FACE_OUTER_BOUND('',#148,.T.);
#150=ORIENTED_EDGE('',*,*,#67,.T.);
#151=EDGE_LOOP('',(#150));
#152=FACE_BOUND('',#151,.T.);
#153=ADVANCED_FACE('',(#149,#152),#138,.F.);
#154=CARTESIAN_POINT('',(47.0,5.500000000000000,1.199999999999939));
#155=CARTESIAN_POINT('',(58.0,5.500000000000000,1.199999999999934));
#156=CARTESIAN_POINT('',(47.0,-5.500000000000000,1.199999999999939));
#157=CARTESIAN_POINT('',(58.0,-5.500000000000000,1.199999999999934));
#158=B_SPLINE_SURFACE_WITH_KNOTS('',1,1,((#154,#156),(#155,#157)),.UNSPECIFIED.,.F.,.F.,.U.,(2,2),(2,2),(0.0,11.0),(0.0,11.0),.UNSPECIFIED.);
#159=CARTESIAN_POINT('',(58.000000000000007,0.0,1.199999999999935));
#160=VERTEX_POINT('',#159);
#161=CARTESIAN_POINT('',(52.500000000000000,0.0,1.199999999999937));
#162=DIRECTION('',(0.0,0.0,1.0));
#163=DIRECTION('',(1.0,0.0,0.0));
#164=AXIS2_PLACEMENT_3D('',#161,#162,#163);
#165=CIRCLE('',#164,5.500000000000000);
#166=EDGE_CURVE('',#160,#160,#165,.T.);
#167=ORIENTED_EDGE('',*,*,#166,.T.);
#168=EDGE_LOOP('',(#167));
#169=FACE_OUTER_BOUND('',#168,.T.);
#170=CARTESIAN_POINT('',(49.200000000000003,0.0,1.199999999999934));
#171=VERTEX_POINT('',#170);
#172=CARTESIAN_POINT('',(52.500000000000000,0.0,1.199999999999932));
#173=DIRECTION('',(0.0,0.0,1.0));
#174=DIRECTION('',(1.0,0.0,0.0));
#175=AXIS2_PLACEMENT_3D('',#172,#173,#174);
#176=CIRCLE('',#175,3.300000000000000);
#177=EDGE_CURVE('',#171,#171,#176,.T.);
#178=ORIENTED_EDGE('',*,*,#177,.F.);
#179=EDGE_LOOP('',(#178));
#180=FACE_BOUND('',#179,.T.);
#181=ADVANCED_FACE('',(#169,#180),#158,.F.);
#182=CARTESIAN_POINT('',(47.0,-6.735335E-016,5.999999999999997));
#183=CARTESIAN_POINT('',(47.0,-6.735335E-016,1.199999999999935));
#184=CARTESIAN_POINT('',(47.000000000000007,-5.500000000000000,5.999999999999998));
#185=CARTESIAN_POINT('',(47.000000000000007,-5.500000000000000,1.199999999999935));
#186=CARTESIAN_POINT('',(52.500000000000000,-5.500000000000000,5.999999999999995));
#187=CARTESIAN_POINT('',(52.500000000000000,-5.500000000000000,1.199999999999932));
#188=CARTESIAN_POINT('',(58.0,-5.499999999999998,5.999999999999991));
#189=CARTESIAN_POINT('',(58.0,-5.499999999999998,1.199999999999929));
#190=CARTESIAN_POINT('',(58.0,6.735335E-016,5.999999999999992));
#191=CARTESIAN_POINT('',(58.0,6.735335E-016,1.199999999999929));
#192=CARTESIAN_POINT('',(58.0,5.500000000000000,5.999999999999991));
#193=CARTESIAN_POINT('',(58.0,5.500000000000000,1.199999999999929));
#194=CARTESIAN_POINT('',(52.500000000000000,5.500000000000000,5.999999999999995));
#195=CARTESIAN_POINT('',(52.500000000000000,5.500000000000000,1.199999999999932));
#196=CARTESIAN_POINT('',(47.000000000000007,5.499999999999998,5.999999999999998));
#197=CARTESIAN_POINT('',(47.000000000000007,5.499999999999998,1.199999999999935));
#198=CARTESIAN_POINT('',(47.0,-6.735335E-016,5.999999999999997));
#199=CARTESIAN_POINT('',(47.0,-6.735335E-016,1.199999999999935));
#207=(BOUNDED_SURFACE()B_SPLINE_SURFACE(1,2,((#182,#184,#186,#188,#190,#192,#194,#196,#198),(#183,#185,#187,#189,#191,#193,#195,#197,#199)),.UNSPECIFIED.,.F.,.T.,.U.)B_SPLINE_SURFACE_WITH_KNOTS((2,2),(3,2,2,2,3),(-0.436363636363647,0.436363636363637),(0.0,8.639379797371930,17.278759594743860,25.918139392115794,34.557519189487721),.UNSPECIFIED.)GEOMETRIC_REPRESENTATION_ITEM()RATIONAL_B_SPLINE_SURFACE(((1.0,0.707106781186548,1.0,0.707106781186548,1.0,0.707106781186548,1.0,0.707106781186548,1.0),(1.0,0.707106781186548,1.0,0.707106781186548,1.0,0.707106781186548,1.0,0.707106781186548,1.0)))REPRESENTATION_ITEM('')SURFACE());
#208=CARTESIAN_POINT('',(58.000000000000007,0.0,5.999999999999934));
#209=VERTEX_POINT('',#208);
#210=CARTESIAN_POINT('',(52.500000000000000,0.0,5.999999999999989));
#211=DIRECTION('',(0.0,0.0,-1.0));
#212=DIRECTION('',(1.0,0.0,0.0));
#213=AXIS2_PLACEMENT_3D('',#210,#211,#212);
#214=CIRCLE('',#213,5.500000000000000);
#215=EDGE_CURVE('',#209,#209,#214,.T.);
#216=ORIENTED_EDGE('',*,*,#215,.F.);
#217=EDGE_LOOP('',(#216));
#218=FACE_OUTER_BOUND('',#217,.T.);
#219=ORIENTED_EDGE('',*,*,#166,.F.);
#220=EDGE_LOOP('',(#219));
#221=FACE_BOUND('',#220,.T.);
#222=ADVANCED_FACE('',(#218,#221),#207,.F.);
#223=CARTESIAN_POINT('',(49.199999999999996,-4.041201E-016,1.199999999999946));
#224=CARTESIAN_POINT('',(49.199999999999996,-4.041201E-016,-9.947598E-014));
#225=CARTESIAN_POINT('',(49.200000000000003,-3.299999999999996,1.199999999999946));
#226=CARTESIAN_POINT('',(49.200000000000003,-3.299999999999996,-9.947598E-014));
#227=CARTESIAN_POINT('',(52.499999999999993,-3.299999999999997,1.199999999999946));
#228=CARTESIAN_POINT('',(52.499999999999993,-3.299999999999997,-9.947598E-014));
#229=CARTESIAN_POINT('',(55.799999999999990,-3.299999999999996,1.199999999999946));
#230=CARTESIAN_POINT('',(55.799999999999990,-3.299999999999996,-9.947598E-014));
#231=CARTESIAN_POINT('',(55.799999999999990,4.041201E-016,1.199999999999946));
#232=CARTESIAN_POINT('',(55.799999999999990,4.041201E-016,-9.947598E-014));
#233=CARTESIAN_POINT('',(55.799999999999990,3.299999999999996,1.199999999999946));
#234=CARTESIAN_POINT('',(55.799999999999990,3.299999999999996,-9.947598E-014));
#235=CARTESIAN_POINT('',(52.499999999999993,3.299999999999997,1.199999999999946));
#236=CARTESIAN_POINT('',(52.499999999999993,3.299999999999997,-9.947598E-014));
#237=CARTESIAN_POINT('',(49.200000000000003,3.299999999999996,1.199999999999946));
#238=CARTESIAN_POINT('',(49.200000000000003,3.299999999999996,-9.947598E-014));
#239=CARTESIAN_POINT('',(49.199999999999996,-4.041201E-016,1.199999999999946));
#240=CARTESIAN_POINT('',(49.199999999999996,-4.041201E-016,-9.947598E-014));
#248=(BOUNDED_SURFACE()B_SPLINE_SURFACE(1,2,((#223,#225,#227,#229,#231,#233,#235,#237,#239),(#224,#226,#228,#230,#232,#234,#236,#238,#240)),.UNSPECIFIED.,.F.,.T.,.U.)B_SPLINE_SURFACE_WITH_KNOTS((2,2),(3,2,2,2,3),(-35.589592218026972,-35.225955854390598),(0.0,5.183627878423159,10.367255756846317,15.550883635269477,20.734511513692635),.UNSPECIFIED.)GEOMETRIC_REPRESENTATION_ITEM()RATIONAL_B_SPLINE_SURFACE(((1.0,0.707106781186548,1.0,0.707106781186548,1.0,0.707106781186548,1.0,0.707106781186548,1.0),(1.0,0.707106781186548,1.0,0.707106781186548,1.0,0.707106781186548,1.0,0.707106781186548,1.0)))REPRESENTATION_ITEM('')SURFACE());
#249=CARTESIAN_POINT('',(49.200000000000003,-4.041201E-016,-6.958878E-014));
#250=VERTEX_POINT('',#249);
#251=CARTESIAN_POINT('',(52.500000000000000,0.0,-7.105427E-014));
#252=DIRECTION('',(0.0,0.0,1.0));
#253=DIRECTION('',(1.0,0.0,0.0));
#254=AXIS2_PLACEMENT_3D('',#251,#252,#253);
#255=CIRCLE('',#254,3.300000000000000);
#256=EDGE_CURVE('',#250,#250,#255,.T.);
#257=ORIENTED_EDGE('',*,*,#256,.F.);
#258=EDGE_LOOP('',(#257));
#259=FACE_OUTER_BOUND('',#258,.T.);
#260=ORIENTED_EDGE('',*,*,#177,.T.);
#261=EDGE_LOOP('',(#260));
#262=FACE_BOUND('',#261,.T.);
#263=ADVANCED_FACE('',(#259,#262),#248,.F.);
#264=CARTESIAN_POINT('',(60.0,0.0,-1.443290E-014));
#265=DIRECTION('',(1.0,0.0,0.0));
#266=DIRECTION('',(0.0,0.0,-1.0));
#267=AXIS2_PLACEMENT_3D('',#264,#265,#266);
#268=PLANE('',#267);
#269=CARTESIAN_POINT('',(60.0,6.000000000000001,-1.443290E-014));
#270=VERTEX_POINT('',#269);
#271=CARTESIAN_POINT('',(60.0,6.000000000000001,5.999999999999987));
#272=VERTEX_POINT('',#271);
#273=CARTESIAN_POINT('',(60.0,6.000000000000001,-1.443290E-014));
#274=DIRECTION('',(0.0,0.0,1.0));
#275=VECTOR('',#274,6.000000000000001);
#276=LINE('',#273,#275);
#277=EDGE_CURVE('',#270,#272,#276,.T.);
#278=ORIENTED_EDGE('',*,*,#277,.T.);
#279=CARTESIAN_POINT('',(60.0,-6.000000000000001,5.999999999999987));
#280=VERTEX_POINT('',#279);
#281=CARTESIAN_POINT('',(60.0,-6.000000000000001,5.999999999999987));
#282=DIRECTION('',(0.0,1.0,0.0));
#283=VECTOR('',#282,12.000000000000002);
#284=LINE('',#281,#283);
#285=EDGE_CURVE('',#280,#272,#284,.T.);
#286=ORIENTED_EDGE('',*,*,#285,.F.);
#287=CARTESIAN_POINT('',(60.0,-6.000000000000001,-1.443290E-014));
#288=VERTEX_POINT('',#287);
#289=CARTESIAN_POINT('',(60.0,-6.000000000000001,5.999999999999987));
#290=DIRECTION('',(0.0,0.0,-1.0));
#291=VECTOR('',#290,6.000000000000001);
#292=LINE('',#289,#291);
#293=EDGE_CURVE('',#280,#288,#292,.T.);
#294=ORIENTED_EDGE('',*,*,#293,.T.);
#295=CARTESIAN_POINT('',(60.0,-6.000000000000001,-1.443290E-014));
#296=DIRECTION('',(0.0,1.0,0.0));
#297=VECTOR('',#296,12.000000000000002);
#298=LINE('',#295,#297);
#299=EDGE_CURVE('',#288,#270,#298,.T.);
#300=ORIENTED_EDGE('',*,*,#299,.T.);
#301=EDGE_LOOP('',(#278,#286,#294,#300));
#302=FACE_OUTER_BOUND('',#301,.T.);
#303=ADVANCED_FACE('',(#302),#268,.T.);
#304=CARTESIAN_POINT('',(60.0,0.0,5.999999999999987));
#305=DIRECTION('',(0.0,0.0,1.0));
#306=DIRECTION('',(1.0,0.0,0.0));
#307=AXIS2_PLACEMENT_3D('',#304,#305,#306);
#308=PLANE('',#307);
#309=CARTESIAN_POINT('',(45.0,6.000000000000001,5.999999999999980));
#310=VERTEX_POINT('',#309);
#311=CARTESIAN_POINT('',(60.0,6.000000000000001,5.999999999999987));
#312=DIRECTION('',(-1.0,0.0,0.0));
#313=VECTOR('',#312,15.0);
#314=LINE('',#311,#313);
#315=EDGE_CURVE('',#272,#310,#314,.T.);
#316=ORIENTED_EDGE('',*,*,#315,.T.);
#317=CARTESIAN_POINT('',(45.0,-6.000000000000001,5.999999999999980));
#318=VERTEX_POINT('',#317);
#319=CARTESIAN_POINT('',(45.0,-6.000000000000001,5.999999999999980));
#320=DIRECTION('',(0.0,1.0,0.0));
#321=VECTOR('',#320,12.000000000000002);
#322=LINE('',#319,#321);
#323=EDGE_CURVE('',#318,#310,#322,.T.);
#324=ORIENTED_EDGE('',*,*,#323,.F.);
#325=CARTESIAN_POINT('',(45.0,-6.000000000000001,5.999999999999980));
#326=DIRECTION('',(1.0,0.0,0.0));
#327=VECTOR('',#326,15.0);
#328=LINE('',#325,#327);
#329=EDGE_CURVE('',#318,#280,#328,.T.);
#330=ORIENTED_EDGE('',*,*,#329,.T.);
#331=ORIENTED_EDGE('',*,*,#285,.T.);
#332=EDGE_LOOP('',(#316,#324,#330,#331));
#333=FACE_OUTER_BOUND('',#332,.T.);
#334=ORIENTED_EDGE('',*,*,#215,.T.);
#335=EDGE_LOOP('',(#334));
#336=FACE_BOUND('',#335,.T.);
#337=ADVANCED_FACE('',(#333,#336),#308,.T.);
#338=CARTESIAN_POINT('',(45.0,0.0,5.999999999999980));
#339=DIRECTION('',(0.499999999999999,0.0,0.866025403784439));
#340=DIRECTION('',(0.866025403784439,0.0,-0.499999999999999));
#341=AXIS2_PLACEMENT_3D('',#338,#339,#340);
#342=PLANE('',#341);
#343=CARTESIAN_POINT('',(20.751288694035644,6.000000000000001,19.999999999999979));
#344=VERTEX_POINT('',#343);
#345=CARTESIAN_POINT('',(45.0,6.000000000000001,5.999999999999980));
#346=DIRECTION('',(-0.866025403784439,0.0,0.499999999999999));
#347=VECTOR('',#346,28.000000000000064);
#348=LINE('',#345,#347);
#349=EDGE_CURVE('',#310,#344,#348,.T.);
#350=ORIENTED_EDGE('',*,*,#349,.T.);
#351=CARTESIAN_POINT('',(20.751288694035644,-6.000000000000001,19.999999999999979));
#352=VERTEX_POINT('',#351);
#353=CARTESIAN_POINT('',(20.751288694035644,-6.000000000000001,19.999999999999979));
#354=DIRECTION('',(0.0,1.0,0.0));
#355=VECTOR('',#354,12.000000000000002);
#356=LINE('',#353,#355);
#357=EDGE_CURVE('',#352,#344,#356,.T.);
#358=ORIENTED_EDGE('',*,*,#357,.F.);
#359=CARTESIAN_POINT('',(20.751288694035644,-6.000000000000001,19.999999999999979));
#360=DIRECTION('',(0.866025403784439,0.0,-0.499999999999999));
#361=VECTOR('',#360,28.000000000000064);
#362=LINE('',#359,#361);
#363=EDGE_CURVE('',#352,#318,#362,.T.);
#364=ORIENTED_EDGE('',*,*,#363,.T.);
#365=ORIENTED_EDGE('',*,*,#323,.T.);
#366=EDGE_LOOP('',(#350,#358,#364,#365));
#367=FACE_OUTER_BOUND('',#366,.T.);
#368=ADVANCED_FACE('',(#367),#342,.T.);
#369=CARTESIAN_POINT('',(-27.267384932432563,-6.000000000000001,7.258874253173663));
#370=DIRECTION('',(0.0,1.0,0.0));
#371=DIRECTION('',(0.0,0.0,1.0));
#372=AXIS2_PLACEMENT_3D('',#369,#370,#371);
#373=PLANE('',#372);
#374=CARTESIAN_POINT('',(-60.0,-6.000000000000001,-1.443290E-014));
#375=VERTEX_POINT('',#374);
#376=CARTESIAN_POINT('',(-60.0,-6.000000000000001,5.999999999999987));
#377=VERTEX_POINT('',#376);
#378=CARTESIAN_POINT('',(-60.0,-6.000000000000001,-1.443290E-014));
#379=DIRECTION('',(0.0,0.0,1.0));
#380=VECTOR('',#379,6.000000000000001);
#381=LINE('',#378,#380);
#382=EDGE_CURVE('',#375,#377,#381,.T.);
#383=ORIENTED_EDGE('',*,*,#382,.F.);
#384=CARTESIAN_POINT('',(60.0,-6.000000000000001,-1.443290E-014));
#385=DIRECTION('',(-1.0,0.0,0.0));
#386=VECTOR('',#385,120.0);
#387=LINE('',#384,#386);
#388=EDGE_CURVE('',#288,#375,#387,.T.);
#389=ORIENTED_EDGE('',*,*,#388,.F.);
#390=ORIENTED_EDGE('',*,*,#293,.F.);
#391=ORIENTED_EDGE('',*,*,#329,.F.);
#392=ORIENTED_EDGE('',*,*,#363,.F.);
#393=CARTESIAN_POINT('',(-20.751288694035644,-6.000000000000001,19.999999999999979));
#394=VERTEX_POINT('',#393);
#395=CARTESIAN_POINT('',(-20.751288694035644,-6.000000000000001,19.999999999999979));
#396=DIRECTION('',(1.0,0.0,0.0));
#397=VECTOR('',#396,41.502577388071288);
#398=LINE('',#395,#397);
#399=EDGE_CURVE('',#394,#352,#398,.T.);
#400=ORIENTED_EDGE('',*,*,#399,.F.);
#401=CARTESIAN_POINT('',(-45.0,-6.000000000000001,5.999999999999980));
#402=VERTEX_POINT('',#401);
#403=CARTESIAN_POINT('',(-45.0,-6.000000000000001,5.999999999999980));
#404=DIRECTION('',(0.866025403784439,0.0,0.499999999999999));
#405=VECTOR('',#404,28.000000000000064);
#406=LINE('',#403,#405);
#407=EDGE_CURVE('',#402,#394,#406,.T.);
#408=ORIENTED_EDGE('',*,*,#407,.F.);
#409=CARTESIAN_POINT('',(-60.0,-6.000000000000001,5.999999999999987));
#410=DIRECTION('',(1.0,0.0,0.0));
#411=VECTOR('',#410,15.0);
#412=LINE('',#409,#411);
#413=EDGE_CURVE('',#377,#402,#412,.T.);
#414=ORIENTED_EDGE('',*,*,#413,.F.);
#415=EDGE_LOOP('',(#383,#389,#390,#391,#392,#400,#408,#414));
#416=FACE_OUTER_BOUND('',#415,.T.);
#417=ADVANCED_FACE('',(#416),#373,.F.);
#418=CARTESIAN_POINT('',(0.0,0.0,19.999999999999993));
#419=DIRECTION('',(0.0,0.0,1.0));
#420=DIRECTION('',(1.0,0.0,0.0));
#421=AXIS2_PLACEMENT_3D('',#418,#419,#420);
#422=PLANE('',#421);
#423=CARTESIAN_POINT('',(-20.751288694035644,6.000000000000001,19.999999999999979));
#424=VERTEX_POINT('',#423);
#425=CARTESIAN_POINT('',(20.751288694035644,6.000000000000001,19.999999999999979));
#426=DIRECTION('',(-1.0,0.0,0.0));
#427=VECTOR('',#426,41.502577388071288);
#428=LINE('',#425,#427);
#429=EDGE_CURVE('',#344,#424,#428,.T.);
#430=ORIENTED_EDGE('',*,*,#429,.T.);
#431=CARTESIAN_POINT('',(-20.751288694035644,-6.000000000000001,19.999999999999979));
#432=DIRECTION('',(0.0,1.0,0.0));
#433=VECTOR('',#432,12.000000000000002);
#434=LINE('',#431,#433);
#435=EDGE_CURVE('',#394,#424,#434,.T.);
#436=ORIENTED_EDGE('',*,*,#435,.F.);
#437=ORIENTED_EDGE('',*,*,#399,.T.);
#438=ORIENTED_EDGE('',*,*,#357,.T.);
#439=EDGE_LOOP('',(#430,#436,#437,#438));
#440=FACE_OUTER_BOUND('',#439,.T.);
#441=ADVANCED_FACE('',(#440),#422,.T.);
#442=CARTESIAN_POINT('',(-20.751288694035644,0.0,19.999999999999979));
#443=DIRECTION('',(-0.499999999999999,0.0,0.866025403784439));
#444=DIRECTION('',(0.866025403784439,0.0,0.499999999999999));
#445=AXIS2_PLACEMENT_3D('',#442,#443,#444);
#446=PLANE('',#445);
#447=CARTESIAN_POINT('',(-45.0,6.000000000000001,5.999999999999980));
#448=VERTEX_POINT('',#447);
#449=CARTESIAN_POINT('',(-20.751288694035644,6.000000000000001,19.999999999999979));
#450=DIRECTION('',(-0.866025403784439,0.0,-0.499999999999999));
#451=VECTOR('',#450,28.000000000000064);
#452=LINE('',#449,#451);
#453=EDGE_CURVE('',#424,#448,#452,.T.);
#454=ORIENTED_EDGE('',*,*,#453,.T.);
#455=CARTESIAN_POINT('',(-45.0,-6.000000000000001,5.999999999999980));
#456=DIRECTION('',(0.0,1.0,0.0));
#457=VECTOR('',#456,12.000000000000002);
#458=LINE('',#455,#457);
#459=EDGE_CURVE('',#402,#448,#458,.T.);
#460=ORIENTED_EDGE('',*,*,#459,.F.);
#461=ORIENTED_EDGE('',*,*,#407,.T.);
#462=ORIENTED_EDGE('',*,*,#435,.T.);
#463=EDGE_LOOP('',(#454,#460,#461,#462));
#464=FACE_OUTER_BOUND('',#463,.T.);
#465=ADVANCED_FACE('',(#464),#446,.T.);
#466=CARTESIAN_POINT('',(-45.0,0.0,5.999999999999980));
#467=DIRECTION('',(0.0,0.0,1.0));
#468=DIRECTION('',(1.0,0.0,0.0));
#469=AXIS2_PLACEMENT_3D('',#466,#467,#468);
#470=PLANE('',#469);
#471=CARTESIAN_POINT('',(-60.0,6.000000000000001,5.999999999999987));
#472=VERTEX_POINT('',#471);
#473=CARTESIAN_POINT('',(-45.0,6.000000000000001,5.999999999999980));
#474=DIRECTION('',(-1.0,0.0,0.0));
#475=VECTOR('',#474,15.0);
#476=LINE('',#473,#475);
#477=EDGE_CURVE('',#448,#472,#476,.T.);
#478=ORIENTED_EDGE('',*,*,#477,.T.);
#479=CARTESIAN_POINT('',(-60.0,-6.000000000000001,5.999999999999987));
#480=DIRECTION('',(0.0,1.0,0.0));
#481=VECTOR('',#480,12.000000000000002);
#482=LINE('',#479,#481);
#483=EDGE_CURVE('',#377,#472,#482,.T.);
#484=ORIENTED_EDGE('',*,*,#483,.F.);
#485=ORIENTED_EDGE('',*,*,#413,.T.);
#486=ORIENTED_EDGE('',*,*,#459,.T.);
#487=EDGE_LOOP('',(#478,#484,#485,#486));
#488=FACE_OUTER_BOUND('',#487,.T.);
#489=ORIENTED_EDGE('',*,*,#105,.T.);
#490=EDGE_LOOP('',(#489));
#491=FACE_BOUND('',#490,.T.);
#492=ADVANCED_FACE('',(#488,#491),#470,.T.);
#493=CARTESIAN_POINT('',(-60.0,0.0,5.999999999999987));
#494=DIRECTION('',(-1.0,0.0,0.0));
#495=DIRECTION('',(0.0,0.0,1.0));
#496=AXIS2_PLACEMENT_3D('',#493,#494,#495);
#497=PLANE('',#496);
#498=CARTESIAN_POINT('',(-60.0,6.000000000000001,-1.443290E-014));
#499=VERTEX_POINT('',#498);
#500=CARTESIAN_POINT('',(-60.0,6.000000000000001,5.999999999999987));
#501=DIRECTION('',(0.0,0.0,-1.0));
#502=VECTOR('',#501,6.000000000000001);
#503=LINE('',#500,#502);
#504=EDGE_CURVE('',#472,#499,#503,.T.);
#505=ORIENTED_EDGE('',*,*,#504,.T.);
#506=CARTESIAN_POINT('',(-60.0,-6.000000000000001,-1.443290E-014));
#507=DIRECTION('',(0.0,1.0,0.0));
#508=VECTOR('',#507,12.000000000000002);
#509=LINE('',#506,#508);
#510=EDGE_CURVE('',#375,#499,#509,.T.);
#511=ORIENTED_EDGE('',*,*,#510,.F.);
#512=ORIENTED_EDGE('',*,*,#382,.T.);
#513=ORIENTED_EDGE('',*,*,#483,.T.);
#514=EDGE_LOOP('',(#505,#511,#512,#513));
#515=FACE_OUTER_BOUND('',#514,.T.);
#516=ADVANCED_FACE('',(#515),#497,.T.);
#517=CARTESIAN_POINT('',(-60.0,0.0,-1.443290E-014));
#518=DIRECTION('',(0.0,0.0,-1.0));
#519=DIRECTION('',(-1.0,0.0,0.0));
#520=AXIS2_PLACEMENT_3D('',#517,#518,#519);
#521=PLANE('',#520);
#522=CARTESIAN_POINT('',(-60.0,6.000000000000001,-1.443290E-014));
#523=DIRECTION('',(1.0,0.0,0.0));
#524=VECTOR('',#523,120.0);
#525=LINE('',#522,#524);
#526=EDGE_CURVE('',#499,#270,#525,.T.);
#527=ORIENTED_EDGE('',*,*,#526,.T.);
#528=ORIENTED_EDGE('',*,*,#299,.F.);
#529=ORIENTED_EDGE('',*,*,#388,.T.);
#530=ORIENTED_EDGE('',*,*,#510,.T.);
#531=EDGE_LOOP('',(#527,#528,#529,#530));
#532=FACE_OUTER_BOUND('',#531,.T.);
#533=ORIENTED_EDGE('',*,*,#146,.T.);
#534=EDGE_LOOP('',(#533));
#535=FACE_BOUND('',#534,.T.);
#536=ORIENTED_EDGE('',*,*,#256,.T.);
#537=EDGE_LOOP('',(#536));
#538=FACE_BOUND('',#537,.T.);
#539=ADVANCED_FACE('',(#532,#535,#538),#521,.T.);
#540=CARTESIAN_POINT('',(-27.267384932432563,6.000000000000001,7.258874253173663));
#541=DIRECTION('',(0.0,1.0,0.0));
#542=DIRECTION('',(0.0,0.0,1.0));
#543=AXIS2_PLACEMENT_3D('',#540,#541,#542);
#544=PLANE('',#543);
#545=ORIENTED_EDGE('',*,*,#526,.F.);
#546=ORIENTED_EDGE('',*,*,#504,.F.);
#547=ORIENTED_EDGE('',*,*,#477,.F.);
#548=ORIENTED_EDGE('',*,*,#453,.F.);
#549=ORIENTED_EDGE('',*,*,#429,.F.);
#550=ORIENTED_EDGE('',*,*,#349,.F.);
#551=ORIENTED_EDGE('',*,*,#315,.F.);
#552=ORIENTED_EDGE('',*,*,#277,.F.);
#553=EDGE_LOOP('',(#545,#546,#547,#548,#549,#550,#551,#552));
#554=FACE_OUTER_BOUND('',#553,.T.);
#555=ADVANCED_FACE('',(#554),#544,.T.);
#556=CLOSED_SHELL('',(#71,#112,#153,#181,#222,#263,#303,#337,#368,#417,#441,#465,#492,#516,#539,#555));
#557=MANIFOLD_SOLID_BREP('',#556);
#558=COLOUR_RGB('Metall - Stahl',0.639215707778931,0.639215707778931,0.686274528503418);
#559=FILL_AREA_STYLE_COLOUR('Metall - Stahl',#558);
#560=FILL_AREA_STYLE('Metall - Stahl',(#559));
#561=SURFACE_STYLE_FILL_AREA(#560);
#562=SURFACE_SIDE_STYLE('Metall - Stahl',(#561));
#563=SURFACE_STYLE_USAGE(.BOTH.,#562);
#564=PRESENTATION_STYLE_ASSIGNMENT((#563));
#565=STYLED_ITEM('',(#564),#557);
#566=MECHANICAL_DESIGN_GEOMETRIC_PRESENTATION_REPRESENTATION('',(#565),#36);
#567=ADVANCED_BREP_SHAPE_REPRESENTATION('ABSR',(#557),#36);
#568=SHAPE_REPRESENTATION_RELATIONSHIP('SRR','None',#567,#41);
ENDSEC;
END-ISO-10303-21;
