  0
SECTION
  2
HEADER
  9
$ACADVER
  1
AC1014
  9
$ACADMAINTVER
 70
     9
  9
$DWGCODEPAGE
  3
ANSI_1252
  9
$INSBASE
 10
0.0
 20
0.0
 30
0.0
  9
$EXTMIN
 10
-14.389244
 20
-99.186786
 30
0.0
  9
$EXTMAX
 10
16.791898
 20
-52.506736
 30
0.0
  9
$LIMMIN
 10
0.0
 20
0.0
  9
$LIMMAX
 10
210.0
 20
297.0
  9
$ORTHOMODE
 70
     1
  9
$REGENMODE
 70
     1
  9
$FILLMODE
 70
     1
  9
$QTEXTMODE
 70
     0
  9
$MIRRTEXT
 70
     1
  9
$DRAGMODE
 70
     2
  9
$LTSCALE
 40
5.0
  9
$OSMODE
 70
     7
  9
$ATTMODE
 70
     1
  9
$TEXTSIZE
 40
2.5
  9
$TRACEWID
 40
1.0
  9
$TEXTSTYLE
  7
STANDARD
  9
$CLAYER
  8
2D_PROFILE
  9
$CELTYPE
  6
BYLAYER
  9
$CECOLOR
 62
   256
  9
$CELTSCALE
 40
1.0
  9
$DELOBJ
 70
     1
  9
$DISPSILH
 70
     0
  9
$DIMSCALE
 40
1.0
  9
$DIMASZ
 40
2.5
  9
$DIMEXO
 40
1.0
  9
$DIMDLI
 40
7.0
  9
$DIMRND
 40
0.0
  9
$DIMDLE
 40
0.0
  9
$DIMEXE
 40
1.0
  9
$DIMTP
 40
0.1
  9
$DIMTM
 40
0.1
  9
$DIMTXT
 40
3.5
  9
$DIMCEN
 40
0.0
  9
$DIMTSZ
 40
0.0
  9
$DIMTOL
 70
     0
  9
$DIMLIM
 70
     0
  9
$DIMTIH
 70
     0
  9
$DIMTOH
 70
     0
  9
$DIMSE1
 70
     0
  9
$DIMSE2
 70
     0
  9
$DIMTAD
 70
     1
  9
$DIMZIN
 70
     8
  9
$DIMBLK
  1

  9
$DIMASO
 70
     1
  9
$DIMSHO
 70
     1
  9
$DIMPOST
  1

  9
$DIMAPOST
  1
"
  9
$DIMALT
 70
     0
  9
$DIMALTD
 70
     2
  9
$DIMALTF
 40
0.03937
  9
$DIMLFAC
 40
1.0
  9
$DIMTOFL
 70
     1
  9
$DIMTVP
 40
0.0
  9
$DIMTIX
 70
     0
  9
$DIMSOXD
 70
     0
  9
$DIMSAH
 70
     0
  9
$DIMBLK1
  1

  9
$DIMBLK2
  1

  9
$DIMSTYLE
  2
GEN-ISO
  9
$DIMCLRD
 70
   256
  9
$DIMCLRE
 70
   256
  9
$DIMCLRT
 70
     2
  9
$DIMTFAC
 40
0.71
  9
$DIMGAP
 40
0.6
  9
$DIMJUST
 70
     0
  9
$DIMSD1
 70
     0
  9
$DIMSD2
 70
     0
  9
$DIMTOLJ
 70
     1
  9
$DIMTZIN
 70
     8
  9
$DIMALTZ
 70
     8
  9
$DIMALTTZ
 70
     8
  9
$DIMFIT
 70
     5
  9
$DIMUPT
 70
     0
  9
$DIMUNIT
 70
     2
  9
$DIMDEC
 70
     4
  9
$DIMTDEC
 70
     4
  9
$DIMALTU
 70
     2
  9
$DIMALTTD
 70
     2
  9
$DIMTXSTY
  7
STANDARD
  9
$DIMAUNIT
 70
     0
  9
$LUNITS
 70
     2
  9
$LUPREC
 70
     4
  9
$SKETCHINC
 40
1.0
  9
$FILLETRAD
 40
2.75
  9
$AUNITS
 70
     0
  9
$AUPREC
 70
     0
  9
$MENU
  1
acad
  9
$ELEVATION
 40
0.0
  9
$PELEVATION
 40
0.0
  9
$THICKNESS
 40
0.0
  9
$LIMCHECK
 70
     0
  9
$BLIPMODE
 70
     0
  9
$CHAMFERA
 40
10.0
  9
$CHAMFERB
 40
10.0
  9
$CHAMFERC
 40
0.0
  9
$CHAMFERD
 40
0.0
  9
$SKPOLY
 70
     0
  9
$TDCREATE
 40
2451229.671245543
  9
$TDUPDATE
 40
2451229.671245543
  9
$TDINDWG
 40
0.0000000000
  9
$TDUSRTIMER
 40
0.0000000000
  9
$USRTIMER
 70
     1
  9
$ANGBASE
 50
0.0
  9
$ANGDIR
 70
     0
  9
$PDMODE
 70
     0
  9
$PDSIZE
 40
0.0
  9
$PLINEWID
 40
0.0
  9
$COORDS
 70
     1
  9
$SPLFRAME
 70
     0
  9
$SPLINETYPE
 70
     6
  9
$SPLINESEGS
 70
     8
  9
$ATTDIA
 70
     1
  9
$ATTREQ
 70
     1
  9
$HANDLING
 70
     1
  9
$HANDSEED
  5
6A
  9
$SURFTAB1
 70
     6
  9
$SURFTAB2
 70
     6
  9
$SURFTYPE
 70
     6
  9
$SURFU
 70
     6
  9
$SURFV
 70
     6
  9
$UCSNAME
  2

  9
$UCSORG
 10
0.0
 20
0.0
 30
0.0
  9
$UCSXDIR
 10
1.0
 20
0.0
 30
0.0
  9
$UCSYDIR
 10
0.0
 20
1.0
 30
0.0
  9
$PUCSNAME
  2

  9
$PUCSORG
 10
0.0
 20
0.0
 30
0.0
  9
$PUCSXDIR
 10
1.0
 20
0.0
 30
0.0
  9
$PUCSYDIR
 10
0.0
 20
1.0
 30
0.0
  9
$USERI1
 70
     0
  9
$USERI2
 70
     0
  9
$USERI3
 70
     0
  9
$USERI4
 70
     0
  9
$USERI5
 70
     0
  9
$USERR1
 40
1.0
  9
$USERR2
 40
0.0
  9
$USERR3
 40
0.0
  9
$USERR4
 40
0.0
  9
$USERR5
 40
0.0
  9
$WORLDVIEW
 70
     1
  9
$SHADEDGE
 70
     3
  9
$SHADEDIF
 70
    70
  9
$TILEMODE
 70
     1
  9
$MAXACTVP
 70
    16
  9
$PINSBASE
 10
0.0
 20
0.0
 30
0.0
  9
$PLIMCHECK
 70
     0
  9
$PEXTMIN
 10
1.000000E+20
 20
1.000000E+20
 30
1.000000E+20
  9
$PEXTMAX
 10
-1.000000E+20
 20
-1.000000E+20
 30
-1.000000E+20
  9
$PLIMMIN
 10
0.0
 20
0.0
  9
$PLIMMAX
 10
420.0
 20
297.0
  9
$UNITMODE
 70
     0
  9
$VISRETAIN
 70
     0
  9
$PLINEGEN
 70
     0
  9
$PSLTSCALE
 70
     1
  9
$TREEDEPTH
 70
  3020
  9
$PICKSTYLE
 70
     1
  9
$CMLSTYLE
  2
STANDARD
  9
$CMLJUST
 70
     0
  9
$CMLSCALE
 40
1.0
  9
$PROXYGRAPHICS
 70
     1
  9
$MEASUREMENT
 70
     0
  0
ENDSEC
  0
SECTION
  2
CLASSES
  0
CLASS
  1
DICTIONARYVAR
  2
AcDbDictionaryVar
  3
"AutoCAD"
 90
        0
280
     0
281
     0
  0
ENDSEC
  0
SECTION
  2
TABLES
  0
TABLE
  2
VPORT
  5
12
100
AcDbSymbolTable
 70
     2
  0
VPORT
  5
69
100
AcDbSymbolTableRecord
100
AcDbViewportTableRecord
  2
*ACTIVE
 70
     0
 10
0.0
 20
0.0
 11
1.0
 21
1.0
 12
10.756162
 22
-74.48776
 13
0.0
 23
0.0
 14
5.0
 24
5.0
 15
5.0
 25
5.0
 16
0.0
 26
0.0
 36
1.0
 17
0.0
 27
0.0
 37
0.0
 40
108.512474
 41
1.700368
 42
50.0
 43
0.0
 44
0.0
 50
0.0
 51
0.0
 71
     0
 72
 20000
 73
     1
 74
     3
 75
     0
 76
     0
 77
     0
 78
     0
  0
ENDTAB
  0
TABLE
  2
LTYPE
  5
D
100
AcDbSymbolTable
 70
     1
  0
LTYPE
  5
E
100
AcDbSymbolTableRecord
100
AcDbLinetypeTableRecord
  2
BYBLOCK
 70
     0
  3

 72
    65
 73
     0
 40
0.0
  0
LTYPE
  5
F
100
AcDbSymbolTableRecord
100
AcDbLinetypeTableRecord
  2
BYLAYER
 70
     0
  3

 72
    65
 73
     0
 40
0.0
  0
LTYPE
  5
5
100
AcDbSymbolTableRecord
100
AcDbLinetypeTableRecord
  2
CONTINUOUS
 70
     0
  3
Solid line
 72
    65
 73
     0
 40
0.0
  0
ENDTAB
  0
TABLE
  2
LAYER
  5
A
100
AcDbSymbolTable
 70
     2
  0
LAYER
  5
4
100
AcDbSymbolTableRecord
100
AcDbLayerTableRecord
  2
0
 70
     1
 62
     7
  6
CONTINUOUS
  0
LAYER
  5
1B
100
AcDbSymbolTableRecord
100
AcDbLayerTableRecord
  2
2D_PROFILE
 70
     0
 62
     5
  6
CONTINUOUS
  0
ENDTAB
  0
TABLE
  2
STYLE
  5
B
100
AcDbSymbolTable
 70
     1
  0
STYLE
  5
C
100
AcDbSymbolTableRecord
100
AcDbTextStyleTableRecord
  2
STANDARD
 70
     0
 40
0.0
 41
1.0
 50
0.0
 71
     0
 42
2.5
  3
ISOCP
  4

  0
ENDTAB
  0
TABLE
  2
VIEW
  5
10
100
AcDbSymbolTable
 70
     0
  0
ENDTAB
  0
TABLE
  2
UCS
  5
11
100
AcDbSymbolTable
 70
     0
  0
ENDTAB
  0
TABLE
  2
APPID
  5
14
100
AcDbSymbolTable
 70
     1
  0
APPID
  5
15
100
AcDbSymbolTableRecord
100
AcDbRegAppTableRecord
  2
ACAD
 70
     0
  0
ENDTAB
  0
TABLE
  2
DIMSTYLE
  5
16
100
AcDbSymbolTable
 70
     1
  0
DIMSTYLE
105
1D
100
AcDbSymbolTableRecord
100
AcDbDimStyleTableRecord
  2
GEN-ISO
 70
     0
  3

  4
"
  5

  6

  7

 40
1.0
 41
2.5
 42
1.0
 43
7.0
 44
1.0
 45
0.0
 46
0.0
 47
0.1
 48
0.1
140
3.5
141
0.0
142
0.0
143
0.03937
144
1.0
145
0.0
146
0.71
147
0.6
 71
     0
 72
     0
 73
     0
 74
     0
 75
     0
 76
     0
 77
     1
 78
     8
170
     0
171
     2
172
     1
173
     0
174
     0
175
     0
176
   256
177
   256
178
     2
270
     2
271
     4
272
     4
273
     2
274
     2
340
C
275
     0
280
     0
281
     0
282
     0
283
     1
284
     8
285
     8
286
     8
287
     5
288
     0
  0
ENDTAB
  0
TABLE
  2
BLOCK_RECORD
  5
1
100
AcDbSymbolTable
 70
     0
  0
BLOCK_RECORD
  5
2
100
AcDbSymbolTableRecord
100
AcDbBlockTableRecord
  2
*MODEL_SPACE
  0
BLOCK_RECORD
  5
7
100
AcDbSymbolTableRecord
100
AcDbBlockTableRecord
  2
*PAPER_SPACE
  0
ENDTAB
  0
ENDSEC
  0
SECTION
  2
BLOCKS
  0
BLOCK
  5
3
100
AcDbEntity
  8
0
100
AcDbBlockBegin
  2
*MODEL_SPACE
 70
     0
 10
0.0
 20
0.0
 30
0.0
  3
*MODEL_SPACE
  1

  0
ENDBLK
  5
6
100
AcDbEntity
  8
0
100
AcDbBlockEnd
  0
BLOCK
  5
8
100
AcDbEntity
 67
     1
  8
0
100
AcDbBlockBegin
  2
*PAPER_SPACE
 70
     0
 10
0.0
 20
0.0
 30
0.0
  3
*PAPER_SPACE
  1

  0
ENDBLK
  5
9
100
AcDbEntity
 67
     1
  8
0
100
AcDbBlockEnd
  0
ENDSEC
  0
SECTION
  2
ENTITIES
  0
ARC
  5
1E
100
AcDbEntity
  8
2D_PROFILE
100
AcDbCircle
 10
-1.719887
 20
-96.410289
 30
0.0
 40
0.3
100
AcDbArc
 50
90.0
 51
180.0
1001
ACAD
1000
R13OBJECT
1002
{
1005
68
1002
}
  0
LINE
  5
1F
100
AcDbEntity
  8
2D_PROFILE
100
AcDbLine
 10
8.880113
 20
-96.110289
 30
0.0
 11
-1.719887
 21
-96.110289
 31
0.0
1001
ACAD
1000
R13OBJECT
1002
{
1005
68
1002
}
  0
ARC
  5
20
100
AcDbEntity
  8
2D_PROFILE
100
AcDbCircle
 10
-8.880113
 20
-95.810289
 30
0.0
 40
0.3
210
0.0
220
0.0
230
-1.0
100
AcDbArc
 50
180.0
 51
270.0
1001
ACAD
1000
R13OBJECT
1002
{
1005
68
1002
}
  0
LINE
  5
21
100
AcDbEntity
  8
2D_PROFILE
100
AcDbLine
 10
9.180113
 20
-94.210289
 30
0.0
 11
9.180113
 21
-95.810289
 31
0.0
1001
ACAD
1000
R13OBJECT
1002
{
1005
68
1002
}
  0
ARC
  5
22
100
AcDbEntity
  8
2D_PROFILE
100
AcDbCircle
 10
-8.880113
 20
-94.210289
 30
0.0
 40
0.3
210
0.0
220
0.0
230
-1.0
100
AcDbArc
 50
90.0
 51
180.0
1001
ACAD
1000
R13OBJECT
1002
{
1005
68
1002
}
  0
LINE
  5
23
100
AcDbEntity
  8
2D_PROFILE
100
AcDbLine
 10
0.480113
 20
-93.910289
 30
0.0
 11
8.880113
 21
-93.910289
 31
0.0
1001
ACAD
1000
R13OBJECT
1002
{
1005
68
1002
}
  0
ARC
  5
24
100
AcDbEntity
  8
2D_PROFILE
100
AcDbCircle
 10
0.480113
 20
-93.610289
 30
0.0
 40
0.3
100
AcDbArc
 50
180.0
 51
270.0
1001
ACAD
1000
R13OBJECT
1002
{
1005
68
1002
}
  0
LINE
  5
25
100
AcDbEntity
  8
2D_PROFILE
100
AcDbLine
 10
0.180113
 20
-88.525985
 30
0.0
 11
0.180113
 21
-93.610289
 31
0.0
1001
ACAD
1000
R13OBJECT
1002
{
1005
68
1002
}
  0
ARC
  5
26
100
AcDbEntity
  8
2D_PROFILE
100
AcDbCircle
 10
0.119887
 20
-88.525985
 30
0.0
 40
0.3
210
0.0
220
0.0
230
-1.0
100
AcDbArc
 50
104.914985
 51
180.0
1001
ACAD
1000
R13OBJECT
1002
{
1005
68
1002
}
  0
ARC
  5
27
100
AcDbEntity
  8
2D_PROFILE
100
AcDbCircle
 10
1.192779
 20
-83.59781
 30
0.0
 40
4.8
100
AcDbArc
 50
206.806602
 51
255.085015
1001
ACAD
1000
R13OBJECT
1002
{
1005
68
1002
}
  0
ARC
  5
28
100
AcDbEntity
  8
2D_PROFILE
100
AcDbCircle
 10
3.359144
 20
-85.89781
 30
0.0
 40
0.3
210
0.0
220
0.0
230
-1.0
100
AcDbArc
 50
90.0
 51
153.193398
1001
ACAD
1000
R13OBJECT
1002
{
1005
68
1002
}
  0
LINE
  5
29
100
AcDbEntity
  8
2D_PROFILE
100
AcDbLine
 10
-10.0197
 20
-85.59781
 30
0.0
 11
-3.359144
 21
-85.59781
 31
0.0
1001
ACAD
1000
R13OBJECT
1002
{
1005
68
1002
}
  0
ARC
  5
2A
100
AcDbEntity
  8
2D_PROFILE
100
AcDbCircle
 10
10.0197
 20
-85.89781
 30
0.0
 40
0.3
210
0.0
220
0.0
230
-1.0
100
AcDbArc
 50
0.0
 51
90.0
1001
ACAD
1000
R13OBJECT
1002
{
1005
68
1002
}
  0
LINE
  5
2B
100
AcDbEntity
  8
2D_PROFILE
100
AcDbLine
 10
-10.3197
 20
-87.159073
 30
0.0
 11
-10.3197
 21
-85.89781
 31
0.0
1001
ACAD
1000
R13OBJECT
1002
{
1005
68
1002
}
  0
ARC
  5
2C
100
AcDbEntity
  8
2D_PROFILE
100
AcDbCircle
 10
-10.872512
 20
-87.159073
 30
0.0
 40
0.552813
100
AcDbArc
 50
303.213961
 51
0.0
1001
ACAD
1000
R13OBJECT
1002
{
1005
68
1002
}
  0
ARC
  5
2D
100
AcDbEntity
  8
2D_PROFILE
100
AcDbCircle
 10
10.266887
 20
-88.084073
 30
0.0
 40
0.552812
210
0.0
220
0.0
230
-1.0
100
AcDbArc
 50
303.213961
 51
56.786039
1001
ACAD
1000
R13OBJECT
1002
{
1005
68
1002
}
  0
ARC
  5
2E
100
AcDbEntity
  8
2D_PROFILE
100
AcDbCircle
 10
-10.872512
 20
-89.009073
 30
0.0
 40
0.552812
100
AcDbArc
 50
303.213961
 51
56.786039
1001
ACAD
1000
R13OBJECT
1002
{
1005
68
1002
}
  0
ARC
  5
2F
100
AcDbEntity
  8
2D_PROFILE
100
AcDbCircle
 10
10.266887
 20
-89.934073
 30
0.0
 40
0.552812
210
0.0
220
0.0
230
-1.0
100
AcDbArc
 50
303.213961
 51
56.786039
1001
ACAD
1000
R13OBJECT
1002
{
1005
68
1002
}
  0
ARC
  5
30
100
AcDbEntity
  8
2D_PROFILE
100
AcDbCircle
 10
-10.872512
 20
-90.859073
 30
0.0
 40
0.552812
100
AcDbArc
 50
303.213961
 51
56.786039
1001
ACAD
1000
R13OBJECT
1002
{
1005
68
1002
}
  0
ARC
  5
31
100
AcDbEntity
  8
2D_PROFILE
100
AcDbCircle
 10
10.266887
 20
-91.784073
 30
0.0
 40
0.552812
210
0.0
220
0.0
230
-1.0
100
AcDbArc
 50
303.213961
 51
56.786039
1001
ACAD
1000
R13OBJECT
1002
{
1005
68
1002
}
  0
ARC
  5
32
100
AcDbEntity
  8
2D_PROFILE
100
AcDbCircle
 10
-10.872512
 20
-92.709073
 30
0.0
 40
0.552812
100
AcDbArc
 50
303.213961
 51
56.786039
1001
ACAD
1000
R13OBJECT
1002
{
1005
68
1002
}
  0
ARC
  5
33
100
AcDbEntity
  8
2D_PROFILE
100
AcDbCircle
 10
10.266887
 20
-93.634073
 30
0.0
 40
0.552812
210
0.0
220
0.0
230
-1.0
100
AcDbArc
 50
303.213961
 51
56.786039
1001
ACAD
1000
R13OBJECT
1002
{
1005
68
1002
}
  0
ARC
  5
34
100
AcDbEntity
  8
2D_PROFILE
100
AcDbCircle
 10
-10.872512
 20
-94.559073
 30
0.0
 40
0.552812
100
AcDbArc
 50
303.213961
 51
56.786039
1001
ACAD
1000
R13OBJECT
1002
{
1005
68
1002
}
  0
ARC
  5
35
100
AcDbEntity
  8
2D_PROFILE
100
AcDbCircle
 10
10.266887
 20
-95.484073
 30
0.0
 40
0.552812
210
0.0
220
0.0
230
-1.0
100
AcDbArc
 50
303.213961
 51
56.786039
1001
ACAD
1000
R13OBJECT
1002
{
1005
68
1002
}
  0
ARC
  5
36
100
AcDbEntity
  8
2D_PROFILE
100
AcDbCircle
 10
-10.872512
 20
-96.409073
 30
0.0
 40
0.552812
100
AcDbArc
 50
303.213961
 51
56.786039
1001
ACAD
1000
R13OBJECT
1002
{
1005
68
1002
}
  0
ARC
  5
37
100
AcDbEntity
  8
2D_PROFILE
100
AcDbCircle
 10
10.266887
 20
-97.334073
 30
0.0
 40
0.552812
210
0.0
220
0.0
230
-1.0
100
AcDbArc
 50
303.213961
 51
56.786039
1001
ACAD
1000
R13OBJECT
1002
{
1005
68
1002
}
  0
ARC
  5
38
100
AcDbEntity
  8
2D_PROFILE
100
AcDbCircle
 10
-10.878414
 20
-98.264499
 30
0.0
 40
0.560588
100
AcDbArc
 50
355.314713
 51
56.585091
1001
ACAD
1000
R13OBJECT
1002
{
1005
68
1002
}
  0
ARC
  5
39
100
AcDbEntity
  8
2D_PROFILE
100
AcDbCircle
 10
-10.6197
 20
-98.310289
 30
0.0
 40
0.3
100
AcDbArc
 50
270.0
 51
0.0
1001
ACAD
1000
R13OBJECT
1002
{
1005
68
1002
}
  0
LINE
  5
3A
100
AcDbEntity
  8
2D_PROFILE
100
AcDbLine
 10
-11.0697
 20
-98.610289
 30
0.0
 11
-10.6197
 21
-98.610289
 31
0.0
1001
ACAD
1000
R13OBJECT
1002
{
1005
68
1002
}
  0
ARC
  5
3B
100
AcDbEntity
  8
2D_PROFILE
100
AcDbCircle
 10
-11.0697
 20
-95.860289
 30
0.0
 40
2.75
100
AcDbArc
 50
180.0
 51
270.0
1001
ACAD
1000
R13OBJECT
1002
{
1005
68
1002
}
  0
LINE
  5
3C
100
AcDbEntity
  8
2D_PROFILE
100
AcDbLine
 10
-13.8197
 20
-71.360289
 30
0.0
 11
-13.8197
 21
-95.860289
 31
0.0
1001
ACAD
1000
R13OBJECT
1002
{
1005
68
1002
}
  0
ARC
  5
3D
100
AcDbEntity
  8
2D_PROFILE
100
AcDbCircle
 10
-11.0697
 20
-71.360289
 30
0.0
 40
2.75
100
AcDbArc
 50
90.0
 51
180.0
1001
ACAD
1000
R13OBJECT
1002
{
1005
68
1002
}
  0
LINE
  5
3E
100
AcDbEntity
  8
2D_PROFILE
100
AcDbLine
 10
-4.0697
 20
-68.610289
 30
0.0
 11
-11.0697
 21
-68.610289
 31
0.0
1001
ACAD
1000
R13OBJECT
1002
{
1005
68
1002
}
  0
ARC
  5
3F
100
AcDbEntity
  8
2D_PROFILE
100
AcDbCircle
 10
4.0697
 20
-67.110289
 30
0.0
 40
1.5
210
0.0
220
0.0
230
-1.0
100
AcDbArc
 50
180.0
 51
270.0
1001
ACAD
1000
R13OBJECT
1002
{
1005
68
1002
}
  0
LINE
  5
40
100
AcDbEntity
  8
2D_PROFILE
100
AcDbLine
 10
-2.5697
 20
-53.110289
 30
0.0
 11
-2.5697
 21
-67.110289
 31
0.0
1001
ACAD
1000
R13OBJECT
1002
{
1005
68
1002
}
  0
ARC
  5
41
100
AcDbEntity
  8
2D_PROFILE
100
AcDbCircle
 10
-2.0697
 20
-53.110289
 30
0.0
 40
0.5
100
AcDbArc
 50
90.0
 51
180.0
1001
ACAD
1000
R13OBJECT
1002
{
1005
68
1002
}
  0
LINE
  5
42
100
AcDbEntity
  8
2D_PROFILE
100
AcDbLine
 10
4.4303
 20
-52.610289
 30
0.0
 11
-2.0697
 21
-52.610289
 31
0.0
1001
ACAD
1000
R13OBJECT
1002
{
1005
68
1002
}
  0
ARC
  5
43
100
AcDbEntity
  8
2D_PROFILE
100
AcDbCircle
 10
4.4303
 20
-53.110289
 30
0.0
 40
0.5
100
AcDbArc
 50
0.0
 51
90.0
1001
ACAD
1000
R13OBJECT
1002
{
1005
68
1002
}
  0
LINE
  5
44
100
AcDbEntity
  8
2D_PROFILE
100
AcDbLine
 10
4.9303
 20
-67.110289
 30
0.0
 11
4.9303
 21
-53.110289
 31
0.0
1001
ACAD
1000
R13OBJECT
1002
{
1005
68
1002
}
  0
ARC
  5
45
100
AcDbEntity
  8
2D_PROFILE
100
AcDbCircle
 10
-6.4303
 20
-67.110289
 30
0.0
 40
1.5
210
0.0
220
0.0
230
-1.0
100
AcDbArc
 50
270.0
 51
0.0
1001
ACAD
1000
R13OBJECT
1002
{
1005
68
1002
}
  0
LINE
  5
46
100
AcDbEntity
  8
2D_PROFILE
100
AcDbLine
 10
13.455233
 20
-68.610289
 30
0.0
 11
6.4303
 21
-68.610289
 31
0.0
1001
ACAD
1000
R13OBJECT
1002
{
1005
68
1002
}
  0
ARC
  5
47
100
AcDbEntity
  8
2D_PROFILE
100
AcDbCircle
 10
13.455233
 20
-71.360289
 30
0.0
 40
2.75
100
AcDbArc
 50
359.0
 51
90.0
1001
ACAD
1000
R13OBJECT
1002
{
1005
68
1002
}
  0
LINE
  5
48
100
AcDbEntity
  8
2D_PROFILE
100
AcDbLine
 10
16.080762
 20
-78.515263
 30
0.0
 11
16.204815
 21
-71.408283
 31
0.0
1001
ACAD
1000
R13OBJECT
1002
{
1005
68
1002
}
  0
ARC
  5
49
100
AcDbEntity
  8
2D_PROFILE
100
AcDbCircle
 10
15.080914
 20
-78.49781
 30
0.0
 40
1.0
100
AcDbArc
 50
270.0
 51
359.0
1001
ACAD
1000
R13OBJECT
1002
{
1005
68
1002
}
  0
LINE
  5
4A
100
AcDbEntity
  8
2D_PROFILE
100
AcDbLine
 10
14.580838
 20
-79.49781
 30
0.0
 11
15.080914
 21
-79.49781
 31
0.0
1001
ACAD
1000
R13OBJECT
1002
{
1005
68
1002
}
  0
ARC
  5
4B
100
AcDbEntity
  8
2D_PROFILE
100
AcDbCircle
 10
14.580838
 20
-78.49781
 30
0.0
 40
1.0
100
AcDbArc
 50
179.0
 51
270.0
1001
ACAD
1000
R13OBJECT
1002
{
1005
68
1002
}
  0
LINE
  5
4C
100
AcDbEntity
  8
2D_PROFILE
100
AcDbLine
 10
13.648456
 20
-74.615262
 30
0.0
 11
13.58099
 21
-78.480358
 31
0.0
1001
ACAD
1000
R13OBJECT
1002
{
1005
68
1002
}
  0
ARC
  5
4D
100
AcDbEntity
  8
2D_PROFILE
100
AcDbCircle
 10
-12.648608
 20
-74.59781
 30
0.0
 40
1.0
210
0.0
220
0.0
230
-1.0
100
AcDbArc
 50
64.155096
 51
181.0
1001
ACAD
1000
R13OBJECT
1002
{
1005
68
1002
}
  0
ARC
  5
4E
100
AcDbEntity
  8
2D_PROFILE
100
AcDbCircle
 10
-26.206358
 20
-94.414414
 30
0.0
 40
25.0
210
0.0
220
0.0
230
-1.0
100
AcDbArc
 50
38.894635
 51
55.961664
1001
ACAD
1000
R13OBJECT
1002
{
1005
68
1002
}
  0
ARC
  5
4F
100
AcDbEntity
  8
2D_PROFILE
100
AcDbCircle
 10
-9.963231
 20
-81.09781
 30
0.0
 40
4.0
210
0.0
220
0.0
230
-1.0
100
AcDbArc
 50
0.0
 51
36.524238
1001
ACAD
1000
R13OBJECT
1002
{
1005
68
1002
}
  0
LINE
  5
50
100
AcDbEntity
  8
2D_PROFILE
100
AcDbLine
 10
5.963231
 20
-86.09781
 30
0.0
 11
5.963231
 21
-81.09781
 31
0.0
1001
ACAD
1000
R13OBJECT
1002
{
1005
68
1002
}
  0
ARC
  5
51
100
AcDbEntity
  8
2D_PROFILE
100
AcDbCircle
 10
-9.963231
 20
-86.09781
 30
0.0
 40
4.0
210
0.0
220
0.0
230
-1.0
100
AcDbArc
 50
323.475762
 51
0.0
1001
ACAD
1000
R13OBJECT
1002
{
1005
68
1002
}
  0
ARC
  5
52
100
AcDbEntity
  8
2D_PROFILE
100
AcDbCircle
 10
-26.206358
 20
-72.781207
 30
0.0
 40
25.0
210
0.0
220
0.0
230
-1.0
100
AcDbArc
 50
304.038336
 51
321.105365
1001
ACAD
1000
R13OBJECT
1002
{
1005
68
1002
}
  0
ARC
  5
53
100
AcDbEntity
  8
2D_PROFILE
100
AcDbCircle
 10
-12.648608
 20
-92.59781
 30
0.0
 40
1.0
210
0.0
220
0.0
230
-1.0
100
AcDbArc
 50
179.0
 51
295.844904
1001
ACAD
1000
R13OBJECT
1002
{
1005
68
1002
}
  0
LINE
  5
54
100
AcDbEntity
  8
2D_PROFILE
100
AcDbLine
 10
13.58099
 20
-88.715263
 30
0.0
 11
13.648456
 21
-92.580358
 31
0.0
1001
ACAD
1000
R13OBJECT
1002
{
1005
68
1002
}
  0
ARC
  5
55
100
AcDbEntity
  8
2D_PROFILE
100
AcDbCircle
 10
14.580838
 20
-88.69781
 30
0.0
 40
1.0
100
AcDbArc
 50
90.0
 51
181.0
1001
ACAD
1000
R13OBJECT
1002
{
1005
68
1002
}
  0
LINE
  5
56
100
AcDbEntity
  8
2D_PROFILE
100
AcDbLine
 10
15.080914
 20
-87.69781
 30
0.0
 11
14.580838
 21
-87.69781
 31
0.0
1001
ACAD
1000
R13OBJECT
1002
{
1005
68
1002
}
  0
ARC
  5
57
100
AcDbEntity
  8
2D_PROFILE
100
AcDbCircle
 10
15.080914
 20
-88.69781
 30
0.0
 40
1.0
100
AcDbArc
 50
1.0
 51
90.0
1001
ACAD
1000
R13OBJECT
1002
{
1005
68
1002
}
  0
LINE
  5
58
100
AcDbEntity
  8
2D_PROFILE
100
AcDbLine
 10
16.20525
 20
-95.812295
 30
0.0
 11
16.080762
 21
-88.680358
 31
0.0
1001
ACAD
1000
R13OBJECT
1002
{
1005
68
1002
}
  0
ARC
  5
59
100
AcDbEntity
  8
2D_PROFILE
100
AcDbCircle
 10
13.455669
 20
-95.860289
 30
0.0
 40
2.75
100
AcDbArc
 50
270.0
 51
1.0
1001
ACAD
1000
R13OBJECT
1002
{
1005
68
1002
}
  0
LINE
  5
5A
100
AcDbEntity
  8
2D_PROFILE
100
AcDbLine
 10
-1.719887
 20
-98.610289
 30
0.0
 11
13.455669
 21
-98.610289
 31
0.0
1001
ACAD
1000
R13OBJECT
1002
{
1005
68
1002
}
  0
ARC
  5
5B
100
AcDbEntity
  8
2D_PROFILE
100
AcDbCircle
 10
-1.719887
 20
-98.310289
 30
0.0
 40
0.3
100
AcDbArc
 50
180.0
 51
270.0
1001
ACAD
1000
R13OBJECT
1002
{
1005
68
1002
}
  0
LINE
  5
5C
100
AcDbEntity
  8
2D_PROFILE
100
AcDbLine
 10
-2.019887
 20
-96.410289
 30
0.0
 11
-2.019887
 21
-98.310289
 31
0.0
1001
ACAD
1000
R13OBJECT
1002
{
1005
68
1002
}
  0
CIRCLE
  5
5D
100
AcDbEntity
  8
2D_PROFILE
100
AcDbCircle
 10
-1.192779
 20
-83.59781
 30
0.0
 40
3.4
210
0.0
220
0.0
230
-1.0
1001
ACAD
1000
R13OBJECT
1002
{
1005
68
1002
}
  0
ARC
  5
5E
100
AcDbEntity
  8
2D_PROFILE
100
AcDbCircle
 10
3.359144
 20
-81.29781
 30
0.0
 40
0.3
210
0.0
220
0.0
230
-1.0
100
AcDbArc
 50
206.806602
 51
270.0
1001
ACAD
1000
R13OBJECT
1002
{
1005
68
1002
}
  0
ARC
  5
5F
100
AcDbEntity
  8
2D_PROFILE
100
AcDbCircle
 10
1.192779
 20
-83.59781
 30
0.0
 40
4.8
100
AcDbArc
 50
96.360741
 51
153.193398
1001
ACAD
1000
R13OBJECT
1002
{
1005
68
1002
}
  0
LINE
  5
60
100
AcDbEntity
  8
2D_PROFILE
100
AcDbLine
 10
2.680699
 20
-78.827359
 30
0.0
 11
0.660997
 21
-78.827359
 31
0.0
1001
ACAD
1000
R13OBJECT
1002
{
1005
68
1002
}
  0
ARC
  5
61
100
AcDbEntity
  8
2D_PROFILE
100
AcDbCircle
 10
-2.680699
 20
-78.327359
 30
0.0
 40
0.5
210
0.0
220
0.0
230
-1.0
100
AcDbArc
 50
214.364667
 51
270.0
1001
ACAD
1000
R13OBJECT
1002
{
1005
68
1002
}
  0
ARC
  5
62
100
AcDbEntity
  8
2D_PROFILE
100
AcDbCircle
 10
26.206358
 20
-94.414414
 30
0.0
 40
28.0
100
AcDbArc
 50
128.500671
 51
145.635333
1001
ACAD
1000
R13OBJECT
1002
{
1005
68
1002
}
  0
ARC
  5
63
100
AcDbEntity
  8
2D_PROFILE
100
AcDbCircle
 10
-8.46443
 20
-72.110289
 30
0.0
 40
0.5
210
0.0
220
0.0
230
-1.0
100
AcDbArc
 50
90.0
 51
231.499329
1001
ACAD
1000
R13OBJECT
1002
{
1005
68
1002
}
  0
LINE
  5
64
100
AcDbEntity
  8
2D_PROFILE
100
AcDbLine
 10
-9.8197
 20
-71.610289
 30
0.0
 11
8.46443
 21
-71.610289
 31
0.0
1001
ACAD
1000
R13OBJECT
1002
{
1005
68
1002
}
  0
ARC
  5
65
100
AcDbEntity
  8
2D_PROFILE
100
AcDbCircle
 10
9.8197
 20
-72.110289
 30
0.0
 40
0.5
210
0.0
220
0.0
230
-1.0
100
AcDbArc
 50
0.0
 51
90.0
1001
ACAD
1000
R13OBJECT
1002
{
1005
68
1002
}
  0
LINE
  5
66
100
AcDbEntity
  8
2D_PROFILE
100
AcDbLine
 10
-10.3197
 20
-81.09781
 30
0.0
 11
-10.3197
 21
-72.110289
 31
0.0
1001
ACAD
1000
R13OBJECT
1002
{
1005
68
1002
}
  0
ARC
  5
67
100
AcDbEntity
  8
2D_PROFILE
100
AcDbCircle
 10
9.8197
 20
-81.09781
 30
0.0
 40
0.5
210
0.0
220
0.0
230
-1.0
100
AcDbArc
 50
270.0
 51
0.0
1001
ACAD
1000
R13OBJECT
1002
{
1005
68
1002
}
  0
LINE
  5
68
100
AcDbEntity
  8
2D_PROFILE
100
AcDbLine
 10
-3.359144
 20
-81.59781
 30
0.0
 11
-9.8197
 21
-81.59781
 31
0.0
  0
ENDSEC
  0
SECTION
  2
OBJECTS
  0
DICTIONARY
  5
1A
100
AcDbDictionary
  3
ACAD_GROUP
350
18
  3
ACAD_MLINESTYLE
350
19
  0
DICTIONARY
  5
18
102
{ACAD_REACTORS
330
1A
102
}
100
AcDbDictionary
  0
DICTIONARY
  5
19
102
{ACAD_REACTORS
330
1A
102
}
100
AcDbDictionary
  3
STANDARD
350
1C
  0
MLINESTYLE
  5
1C
102
{ACAD_REACTORS
330
19
102
}
100
AcDbMlineStyle
  2
STANDARD
 70
     0
  3

 62
   256
 51
90.0
 52
90.0
 71
     2
 49
0.5
 62
   256
  6
BYLAYER
 49
-0.5
 62
   256
  6
BYLAYER
  0
ENDSEC
  0
EOF
