ISO-10303-21;
HEADER;
/* Generated by software containing ST-Developer
 * from STEP Tools, Inc. (www.steptools.com) 
 */

FILE_DESCRIPTION(
/* description */ ('Zuganker G 50 M12 lang'),
/* implementation_level */ '2;1');

FILE_NAME(
/* name */ 'Q:\\ExterneArtikel_Webseite_Palkat\\SV\\SV_step\\SV7307V_A.
stp',
/* time_stamp */ '2015-11-27T08:56:36+01:00',
/* author */ ('Marina Kaa'),
/* organization */ (''),
/* preprocessor_version */ 'ST-DEVELOPER v15.6',
/* originating_system */ 'Autodesk Inventor 2015',
/* authorisation */ '');

FILE_SCHEMA (('AUTOMOTIVE_DESIGN { 1 0 10303 214 3 1 1 }'));
ENDSEC;

DATA;
#10=MECHANICAL_DESIGN_GEOMETRIC_PRESENTATION_REPRESENTATION('',(#13),#184);
#11=SHAPE_REPRESENTATION_RELATIONSHIP('SRR','None',#193,#12);
#12=ADVANCED_BREP_SHAPE_REPRESENTATION($,(#14),#183);
#13=STYLED_ITEM('',(#202),#14);
#14=MANIFOLD_SOLID_BREP('Volumenk\X\F6rper1',#77);
#15=PLANE('',#84);
#16=PLANE('',#87);
#17=B_SPLINE_CURVE_WITH_KNOTS('',3,(#122,#123,#124,#125,#126,#127,#128,
#129,#130,#131,#132,#133,#134,#135,#136,#137,#138,#139,#140,#141,#142,#143,
#144,#145,#146,#147),.UNSPECIFIED.,.F.,.F.,(4,2,2,2,2,2,2,2,2,2,2,2,4),
(0.790643271536965,0.886300370261807,0.981957468986649,1.09089511419826,
1.19983275940987,1.39075468736303,1.58167661531619,1.77259854326934,1.9635204712225,
2.07245811643411,2.18139576164572,2.27705286037056,2.37270995909541),
 .UNSPECIFIED.);
#18=B_SPLINE_CURVE_WITH_KNOTS('',3,(#148,#149,#150,#151,#152,#153,#154,
#155,#156,#157,#158,#159,#160,#161,#162,#163,#164,#165,#166,#167,#168,#169,
#170,#171,#172,#173,#174),.UNSPECIFIED.,.F.,.F.,(4,2,2,2,2,2,3,2,2,2,2,
2,4),(2.37270995909541,2.46836705782025,2.56402415654509,2.6729618017567,
2.78189944696831,2.97282137492147,3.16374330287463,3.3371496365259,3.51055597017718,
3.62832981113156,3.74610365208595,3.85024511324877,3.95438657441159),
 .UNSPECIFIED.);
#19=CYLINDRICAL_SURFACE('',#82,6.);
#20=FACE_BOUND('',#31,.T.);
#21=FACE_BOUND('',#33,.T.);
#22=FACE_BOUND('',#34,.T.);
#23=FACE_BOUND('',#37,.T.);
#24=FACE_OUTER_BOUND('',#30,.T.);
#25=FACE_OUTER_BOUND('',#32,.T.);
#26=FACE_OUTER_BOUND('',#35,.T.);
#27=FACE_OUTER_BOUND('',#36,.T.);
#28=FACE_OUTER_BOUND('',#38,.T.);
#29=FACE_OUTER_BOUND('',#39,.T.);
#30=EDGE_LOOP('',(#56));
#31=EDGE_LOOP('',(#57));
#32=EDGE_LOOP('',(#58));
#33=EDGE_LOOP('',(#59,#60));
#34=EDGE_LOOP('',(#61));
#35=EDGE_LOOP('',(#62));
#36=EDGE_LOOP('',(#63));
#37=EDGE_LOOP('',(#64));
#38=EDGE_LOOP('',(#65));
#39=EDGE_LOOP('',(#66,#67));
#40=CIRCLE('',#80,6.);
#41=CIRCLE('',#81,5.);
#42=CIRCLE('',#83,6.);
#43=CIRCLE('',#86,5.);
#44=VERTEX_POINT('',#113);
#45=VERTEX_POINT('',#115);
#46=VERTEX_POINT('',#118);
#47=VERTEX_POINT('',#120);
#48=VERTEX_POINT('',#121);
#49=VERTEX_POINT('',#177);
#50=EDGE_CURVE('',#44,#44,#40,.T.);
#51=EDGE_CURVE('',#45,#45,#41,.T.);
#52=EDGE_CURVE('',#46,#46,#42,.T.);
#53=EDGE_CURVE('',#47,#48,#17,.T.);
#54=EDGE_CURVE('',#48,#47,#18,.T.);
#55=EDGE_CURVE('',#49,#49,#43,.T.);
#56=ORIENTED_EDGE('',*,*,#50,.T.);
#57=ORIENTED_EDGE('',*,*,#51,.T.);
#58=ORIENTED_EDGE('',*,*,#52,.F.);
#59=ORIENTED_EDGE('',*,*,#53,.T.);
#60=ORIENTED_EDGE('',*,*,#54,.T.);
#61=ORIENTED_EDGE('',*,*,#50,.F.);
#62=ORIENTED_EDGE('',*,*,#51,.F.);
#63=ORIENTED_EDGE('',*,*,#55,.T.);
#64=ORIENTED_EDGE('',*,*,#52,.T.);
#65=ORIENTED_EDGE('',*,*,#55,.F.);
#66=ORIENTED_EDGE('',*,*,#53,.F.);
#67=ORIENTED_EDGE('',*,*,#54,.F.);
#68=CONICAL_SURFACE('',#79,5.5,45.0000000000001);
#69=CONICAL_SURFACE('',#85,5.5,45.0000000000001);
#70=CONICAL_SURFACE('',#88,3.,45.);
#71=ADVANCED_FACE('',(#24,#20),#68,.T.);
#72=ADVANCED_FACE('',(#25,#21,#22),#19,.T.);
#73=ADVANCED_FACE('',(#26),#15,.T.);
#74=ADVANCED_FACE('',(#27,#23),#69,.T.);
#75=ADVANCED_FACE('',(#28),#16,.T.);
#76=ADVANCED_FACE('',(#29),#70,.F.);
#77=CLOSED_SHELL('',(#71,#72,#73,#74,#75,#76));
#78=AXIS2_PLACEMENT_3D('placement',#111,#89,#90);
#79=AXIS2_PLACEMENT_3D('',#112,#91,#92);
#80=AXIS2_PLACEMENT_3D('',#114,#93,#94);
#81=AXIS2_PLACEMENT_3D('',#116,#95,#96);
#82=AXIS2_PLACEMENT_3D('',#117,#97,#98);
#83=AXIS2_PLACEMENT_3D('',#119,#99,#100);
#84=AXIS2_PLACEMENT_3D('',#175,#101,#102);
#85=AXIS2_PLACEMENT_3D('',#176,#103,#104);
#86=AXIS2_PLACEMENT_3D('',#178,#105,#106);
#87=AXIS2_PLACEMENT_3D('',#179,#107,#108);
#88=AXIS2_PLACEMENT_3D('',#180,#109,#110);
#89=DIRECTION('axis',(0.,0.,1.));
#90=DIRECTION('refdir',(1.,0.,0.));
#91=DIRECTION('center_axis',(0.,0.,1.));
#92=DIRECTION('ref_axis',(0.,-1.,0.));
#93=DIRECTION('center_axis',(0.,0.,-1.));
#94=DIRECTION('ref_axis',(0.,-1.,0.));
#95=DIRECTION('center_axis',(0.,0.,1.));
#96=DIRECTION('ref_axis',(0.,-1.,0.));
#97=DIRECTION('center_axis',(0.,0.,-1.));
#98=DIRECTION('ref_axis',(0.,1.,0.));
#99=DIRECTION('center_axis',(0.,0.,1.));
#100=DIRECTION('ref_axis',(0.,-1.,0.));
#101=DIRECTION('center_axis',(0.,0.,-1.));
#102=DIRECTION('ref_axis',(-1.,0.,0.));
#103=DIRECTION('center_axis',(0.,0.,-1.));
#104=DIRECTION('ref_axis',(0.,-1.,0.));
#105=DIRECTION('center_axis',(0.,0.,-1.));
#106=DIRECTION('ref_axis',(0.,-1.,0.));
#107=DIRECTION('center_axis',(0.,0.,1.));
#108=DIRECTION('ref_axis',(1.,0.,0.));
#109=DIRECTION('center_axis',(1.,0.,0.));
#110=DIRECTION('ref_axis',(0.,0.,1.));
#111=CARTESIAN_POINT('',(0.,0.,0.));
#112=CARTESIAN_POINT('Origin',(0.,0.,-42.5));
#113=CARTESIAN_POINT('',(7.34788079488412E-16,6.,-42.));
#114=CARTESIAN_POINT('Origin',(0.,0.,-42.));
#115=CARTESIAN_POINT('',(-6.12323399573677E-16,5.,-43.));
#116=CARTESIAN_POINT('Origin',(0.,0.,-43.));
#117=CARTESIAN_POINT('Origin',(0.,0.,-32.5));
#118=CARTESIAN_POINT('',(-7.34788079488412E-16,6.,-1.));
#119=CARTESIAN_POINT('Origin',(0.,0.,-1.));
#120=CARTESIAN_POINT('',(6.00000000000001,0.,-19.));
#121=CARTESIAN_POINT('',(6.00000000000001,0.,-7.));
#122=CARTESIAN_POINT('Ctrl Pts',(6.,-2.77555756156289E-16,-19.));
#123=CARTESIAN_POINT('Ctrl Pts',(6.,-0.318856995749474,-19.));
#124=CARTESIAN_POINT('Ctrl Pts',(5.97247876080392,-0.659581135600181,-18.9453305576781));
#125=CARTESIAN_POINT('Ctrl Pts',(5.86633898118755,-1.30062152532763,-18.7300799728422));
#126=CARTESIAN_POINT('Ctrl Pts',(5.78850078199155,-1.601397891709,-18.5704864095542));
#127=CARTESIAN_POINT('Ctrl Pts',(5.61201747597235,-2.14420702043316,-18.1972411882743));
#128=CARTESIAN_POINT('Ctrl Pts',(5.49487867836402,-2.42533765204821,-17.9434119030741));
#129=CARTESIAN_POINT('Ctrl Pts',(5.24940422435544,-2.91885404607907,-17.3774909602401));
#130=CARTESIAN_POINT('Ctrl Pts',(5.1217924756341,-3.13196013099747,-17.0657139677627));
#131=CARTESIAN_POINT('Ctrl Pts',(4.81150729805337,-3.60252612610597,-16.2402717874572));
#132=CARTESIAN_POINT('Ctrl Pts',(4.60930464536533,-3.84714689481865,-15.6217380995677));
#133=CARTESIAN_POINT('Ctrl Pts',(4.32211533736875,-4.16719881097873,-14.3204092614629));
#134=CARTESIAN_POINT('Ctrl Pts',(4.24264068711929,-4.24264068711929,-13.6364064265105));
#135=CARTESIAN_POINT('Ctrl Pts',(4.24264068711929,-4.24264068711929,-12.3635935734895));
#136=CARTESIAN_POINT('Ctrl Pts',(4.32211533736875,-4.16719881097873,-11.6795907385372));
#137=CARTESIAN_POINT('Ctrl Pts',(4.60930464536533,-3.84714689481865,-10.3782619004323));
#138=CARTESIAN_POINT('Ctrl Pts',(4.81150729805337,-3.60252612610597,-9.75972821254282));
#139=CARTESIAN_POINT('Ctrl Pts',(5.1217924756341,-3.13196013099747,-8.93428603223736));
#140=CARTESIAN_POINT('Ctrl Pts',(5.24940422435543,-2.91885404607908,-8.62250903975994));
#141=CARTESIAN_POINT('Ctrl Pts',(5.49487867836402,-2.42533765204821,-8.05658809692588));
#142=CARTESIAN_POINT('Ctrl Pts',(5.61201747597235,-2.14420702043316,-7.8027588117257));
#143=CARTESIAN_POINT('Ctrl Pts',(5.78850078199155,-1.601397891709,-7.4295135904458));
#144=CARTESIAN_POINT('Ctrl Pts',(5.86633898118755,-1.30062152532763,-7.2699200271578));
#145=CARTESIAN_POINT('Ctrl Pts',(5.97247876080392,-0.659581135600182,-7.05466944232192));
#146=CARTESIAN_POINT('Ctrl Pts',(6.,-0.318856995749473,-7.));
#147=CARTESIAN_POINT('Ctrl Pts',(6.,4.16333634234434E-16,-7.));
#148=CARTESIAN_POINT('Ctrl Pts',(6.,6.93889390390723E-17,-7.));
#149=CARTESIAN_POINT('Ctrl Pts',(6.,0.318856995749474,-7.));
#150=CARTESIAN_POINT('Ctrl Pts',(5.97247876080392,0.65958113560018,-7.05466944232192));
#151=CARTESIAN_POINT('Ctrl Pts',(5.86633898118755,1.30062152532763,-7.2699200271578));
#152=CARTESIAN_POINT('Ctrl Pts',(5.78850078199156,1.601397891709,-7.4295135904458));
#153=CARTESIAN_POINT('Ctrl Pts',(5.61201747597235,2.14420702043316,-7.80275881172569));
#154=CARTESIAN_POINT('Ctrl Pts',(5.49487867836402,2.4253376520482,-8.05658809692587));
#155=CARTESIAN_POINT('Ctrl Pts',(5.24940422435544,2.91885404607907,-8.62250903975993));
#156=CARTESIAN_POINT('Ctrl Pts',(5.1217924756341,3.13196013099747,-8.93428603223735));
#157=CARTESIAN_POINT('Ctrl Pts',(4.81150729805337,3.60252612610597,-9.75972821254281));
#158=CARTESIAN_POINT('Ctrl Pts',(4.60930464536533,3.84714689481865,-10.3782619004323));
#159=CARTESIAN_POINT('Ctrl Pts',(4.32211533736875,4.16719881097873,-11.6795907385372));
#160=CARTESIAN_POINT('Ctrl Pts',(4.24264068711929,4.24264068711929,-12.3635935734895));
#161=CARTESIAN_POINT('Ctrl Pts',(4.24264068711929,4.24264068711929,-13.));
#162=CARTESIAN_POINT('Ctrl Pts',(4.24264068711929,4.24264068711929,-13.5780211121709));
#163=CARTESIAN_POINT('Ctrl Pts',(4.30792849396003,4.18021636118486,-14.2019404890922));
#164=CARTESIAN_POINT('Ctrl Pts',(4.55097578491885,3.91421474777324,-15.3981109056447));
#165=CARTESIAN_POINT('Ctrl Pts',(4.72469956284137,3.71057064550477,-15.9711635544037));
#166=CARTESIAN_POINT('Ctrl Pts',(5.01734664937384,3.29670516674158,-16.7988945119301));
#167=CARTESIAN_POINT('Ctrl Pts',(5.1545097481487,3.08414522758289,-17.1476608367487));
#168=CARTESIAN_POINT('Ctrl Pts',(5.42318121078353,2.58263992604044,-17.7840294873364));
#169=CARTESIAN_POINT('Ctrl Pts',(5.55383054836236,2.29293228596228,-18.0713932180117));
#170=CARTESIAN_POINT('Ctrl Pts',(5.75406147472609,1.7236523670641,-18.4991901171198));
#171=CARTESIAN_POINT('Ctrl Pts',(5.84390202980436,1.40390056140837,-18.6842336180606));
#172=CARTESIAN_POINT('Ctrl Pts',(5.9673725457795,0.715956249833293,-18.935250630376));
#173=CARTESIAN_POINT('Ctrl Pts',(6.,0.347138203876073,-19.));
#174=CARTESIAN_POINT('Ctrl Pts',(6.,-2.28983498828939E-15,-19.));
#175=CARTESIAN_POINT('Origin',(0.,3.,-43.));
#176=CARTESIAN_POINT('Origin',(0.,0.,-0.5));
#177=CARTESIAN_POINT('',(6.12323399573677E-16,5.,0.));
#178=CARTESIAN_POINT('Origin',(0.,0.,0.));
#179=CARTESIAN_POINT('Origin',(0.,3.,0.));
#180=CARTESIAN_POINT('Origin',(3.,0.,-13.));
#181=UNCERTAINTY_MEASURE_WITH_UNIT(LENGTH_MEASURE(0.01),#185,
'DISTANCE_ACCURACY_VALUE',
'Maximum model space distance between geometric entities at asserted c
onnectivities');
#182=UNCERTAINTY_MEASURE_WITH_UNIT(LENGTH_MEASURE(1.E-6),#185,
'DISTANCE_ACCURACY_VALUE',
'Maximum model space distance between geometric entities at asserted c
onnectivities');
#183=(
GEOMETRIC_REPRESENTATION_CONTEXT(3)
GLOBAL_UNCERTAINTY_ASSIGNED_CONTEXT((#181))
GLOBAL_UNIT_ASSIGNED_CONTEXT((#185,#188,#186))
REPRESENTATION_CONTEXT('','3D')
);
#184=(
GEOMETRIC_REPRESENTATION_CONTEXT(3)
GLOBAL_UNCERTAINTY_ASSIGNED_CONTEXT((#182))
GLOBAL_UNIT_ASSIGNED_CONTEXT((#185,#188,#186))
REPRESENTATION_CONTEXT('','3D')
);
#185=(
LENGTH_UNIT()
NAMED_UNIT(*)
SI_UNIT(.MILLI.,.METRE.)
);
#186=(
NAMED_UNIT(*)
SI_UNIT($,.STERADIAN.)
SOLID_ANGLE_UNIT()
);
#187=DIMENSIONAL_EXPONENTS(0.,0.,0.,0.,0.,0.,0.);
#188=(
CONVERSION_BASED_UNIT('degree',#190)
NAMED_UNIT(#187)
PLANE_ANGLE_UNIT()
);
#189=(
NAMED_UNIT(*)
PLANE_ANGLE_UNIT()
SI_UNIT($,.RADIAN.)
);
#190=PLANE_ANGLE_MEASURE_WITH_UNIT(PLANE_ANGLE_MEASURE(0.01745329252),#189);
#191=SHAPE_DEFINITION_REPRESENTATION(#192,#193);
#192=PRODUCT_DEFINITION_SHAPE('',$,#195);
#193=SHAPE_REPRESENTATION('',(#78),#183);
#194=PRODUCT_DEFINITION_CONTEXT('part definition',#199,'design');
#195=PRODUCT_DEFINITION('SV7307V_A','SV7307V_A',#196,#194);
#196=PRODUCT_DEFINITION_FORMATION('',$,#201);
#197=PRODUCT_RELATED_PRODUCT_CATEGORY('SV7307V_A','SV7307V_A',(#201));
#198=APPLICATION_PROTOCOL_DEFINITION('international standard',
'automotive_design',2009,#199);
#199=APPLICATION_CONTEXT(
'Core Data for Automotive Mechanical Design Process');
#200=PRODUCT_CONTEXT('part definition',#199,'mechanical');
#201=PRODUCT('SV7307V_A','SV7307V_A',$,(#200));
#202=PRESENTATION_STYLE_ASSIGNMENT((#203));
#203=SURFACE_STYLE_USAGE(.BOTH.,#204);
#204=SURFACE_SIDE_STYLE($,(#205));
#205=SURFACE_STYLE_FILL_AREA(#206);
#206=FILL_AREA_STYLE($,(#207));
#207=FILL_AREA_STYLE_COLOUR($,#208);
#208=COLOUR_RGB('',0.63921568627451,0.63921568627451,0.686274509803922);
ENDSEC;
END-ISO-10303-21;
