ISO-10303-21;
HEADER;
/****************************************************************
 * Generated by software with PDElib inside                    *
 * PDElib Version v51a, created Wed 07/06/2011                  *
 * ITI Transcendata (http://www.transcendata.com/)              *
 ****************************************************************/
FILE_DESCRIPTION((''),'2;1');
FILE_NAME('U:\\Paletti Norm\\Paletti Artikel\\SZ\\SZ0924N-A.stp','2013-08-27T13:32:40',('janine behrens'),(''),'Autodesk Inventor 2012','Autodesk Inventor 2012','');
FILE_SCHEMA(('AUTOMOTIVE_DESIGN { 1 0 10303 214 1 1 1 1 }'));
ENDSEC;
DATA;
#5=APPLICATION_CONTEXT('automotive design');
#6=APPLICATION_PROTOCOL_DEFINITION('International Standard','automotive_design',2001,#5);
#7=PRODUCT_CONTEXT('',#5,'mechanical');
#8=PRODUCT('SZ0924N-A','SZ0924N-A',$,(#7));
#9=PRODUCT_RELATED_PRODUCT_CATEGORY('part',$,(#8));
#10=PRODUCT_DEFINITION_FORMATION('',$,#8);
#11=PRODUCT_DEFINITION_CONTEXT('part definition',#5,'design');
#12=PRODUCT_DEFINITION('',$,#10,#11);
#18=(NAMED_UNIT(*)PLANE_ANGLE_UNIT()SI_UNIT($,.RADIAN.));
#19=DIMENSIONAL_EXPONENTS(0.0,0.0,0.0,0.0,0.0,0.0,0.0);
#20=PLANE_ANGLE_MEASURE_WITH_UNIT(PLANE_ANGLE_MEASURE(0.0174532925),#18);
#24=(CONVERSION_BASED_UNIT('DEGREE',#20)NAMED_UNIT(#19)PLANE_ANGLE_UNIT());
#28=(NAMED_UNIT(*)SI_UNIT($,.STERADIAN.)SOLID_ANGLE_UNIT());
#32=(LENGTH_UNIT()NAMED_UNIT(*)SI_UNIT(.MILLI.,.METRE.));
#34=UNCERTAINTY_MEASURE_WITH_UNIT(LENGTH_MEASURE(0.01),#32,'DISTANCE_ACCURACY_VALUE','');
#36=(GEOMETRIC_REPRESENTATION_CONTEXT(3)GLOBAL_UNCERTAINTY_ASSIGNED_CONTEXT((#34))GLOBAL_UNIT_ASSIGNED_CONTEXT((#24,#28,#32))REPRESENTATION_CONTEXT('None','None'));
#37=AXIS2_PLACEMENT_3D('',#38,#39,#40);
#38=CARTESIAN_POINT('',(0.0,0.0,0.0));
#39=DIRECTION('',(0.0,0.0,1.0));
#40=DIRECTION('',(1.0,0.0,0.0));
#41=SHAPE_REPRESENTATION('',(#37),#36);
#42=PRODUCT_DEFINITION_SHAPE('','',#12);
#43=SHAPE_DEFINITION_REPRESENTATION(#42,#41);
#49=(NAMED_UNIT(*)PLANE_ANGLE_UNIT()SI_UNIT($,.RADIAN.));
#50=DIMENSIONAL_EXPONENTS(0.0,0.0,0.0,0.0,0.0,0.0,0.0);
#51=PLANE_ANGLE_MEASURE_WITH_UNIT(PLANE_ANGLE_MEASURE(0.0174532925),#49);
#55=(CONVERSION_BASED_UNIT('DEGREE',#51)NAMED_UNIT(#50)PLANE_ANGLE_UNIT());
#59=(NAMED_UNIT(*)SI_UNIT($,.STERADIAN.)SOLID_ANGLE_UNIT());
#63=(LENGTH_UNIT()NAMED_UNIT(*)SI_UNIT(.MILLI.,.METRE.));
#65=UNCERTAINTY_MEASURE_WITH_UNIT(LENGTH_MEASURE(0.000001),#63,'DISTANCE_ACCURACY_VALUE','');
#67=(GEOMETRIC_REPRESENTATION_CONTEXT(3)GLOBAL_UNCERTAINTY_ASSIGNED_CONTEXT((#65))GLOBAL_UNIT_ASSIGNED_CONTEXT((#55,#59,#63))REPRESENTATION_CONTEXT('','3D'));
#68=CARTESIAN_POINT('',(27.499999999999996,-2.379049E-016,0.0));
#69=DIRECTION('',(0.0,-1.0,0.0));
#70=DIRECTION('',(0.0,0.0,1.0));
#71=AXIS2_PLACEMENT_3D('',#68,#69,#70);
#72=CYLINDRICAL_SURFACE('',#71,3.25);
#73=CARTESIAN_POINT('',(27.499999999999996,-4.999999999999999,3.25));
#74=VERTEX_POINT('',#73);
#75=CARTESIAN_POINT('',(27.499999999999996,-4.999999999999999,-3.250000000000002));
#76=VERTEX_POINT('',#75);
#77=CARTESIAN_POINT('',(27.499999999999996,-5.0,0.0));
#78=DIRECTION('',(0.0,1.0,0.0));
#79=DIRECTION('',(0.0,0.0,1.0));
#80=AXIS2_PLACEMENT_3D('',#77,#78,#79);
#81=CIRCLE('',#80,3.25);
#82=EDGE_CURVE('',#74,#76,#81,.T.);
#83=ORIENTED_EDGE('',*,*,#82,.F.);
#84=CARTESIAN_POINT('',(27.499999999999996,-2.379049E-016,3.25));
#85=VERTEX_POINT('',#84);
#86=CARTESIAN_POINT('',(27.499999999999996,-2.379049E-016,3.25));
#87=DIRECTION('',(0.0,-1.0,0.0));
#88=VECTOR('',#87,4.999999999999999);
#89=LINE('',#86,#88);
#90=EDGE_CURVE('',#85,#74,#89,.T.);
#91=ORIENTED_EDGE('',*,*,#90,.F.);
#92=CARTESIAN_POINT('',(27.499999999999996,-2.379049E-016,-3.250000000000002));
#93=VERTEX_POINT('',#92);
#94=CARTESIAN_POINT('',(27.499999999999996,-1.110223E-015,0.0));
#95=DIRECTION('',(0.0,-1.0,0.0));
#96=DIRECTION('',(0.0,0.0,1.0));
#97=AXIS2_PLACEMENT_3D('',#94,#95,#96);
#98=CIRCLE('',#97,3.25);
#99=EDGE_CURVE('',#93,#85,#98,.T.);
#100=ORIENTED_EDGE('',*,*,#99,.F.);
#101=CARTESIAN_POINT('',(27.499999999999996,-2.379049E-016,-3.250000000000002));
#102=DIRECTION('',(0.0,-1.0,0.0));
#103=VECTOR('',#102,4.999999999999999);
#104=LINE('',#101,#103);
#105=EDGE_CURVE('',#93,#76,#104,.T.);
#106=ORIENTED_EDGE('',*,*,#105,.T.);
#107=EDGE_LOOP('',(#83,#91,#100,#106));
#108=FACE_OUTER_BOUND('',#107,.T.);
#109=ADVANCED_FACE('',(#108),#72,.F.);
#110=CARTESIAN_POINT('',(27.499999999999996,-2.379049E-016,-3.250000000000002));
#111=DIRECTION('',(0.0,0.0,-1.0));
#112=DIRECTION('',(-1.0,0.0,0.0));
#113=AXIS2_PLACEMENT_3D('',#110,#111,#112);
#114=PLANE('',#113);
#115=CARTESIAN_POINT('',(7.499999999999996,-5.0,-3.250000000000002));
#116=VERTEX_POINT('',#115);
#117=CARTESIAN_POINT('',(27.499999999999996,-5.000000000000001,-3.250000000000002));
#118=DIRECTION('',(-1.0,0.0,0.0));
#119=VECTOR('',#118,20.0);
#120=LINE('',#117,#119);
#121=EDGE_CURVE('',#76,#116,#120,.T.);
#122=ORIENTED_EDGE('',*,*,#121,.F.);
#123=ORIENTED_EDGE('',*,*,#105,.F.);
#124=CARTESIAN_POINT('',(7.499999999999996,-8.723181E-016,-3.250000000000002));
#125=VERTEX_POINT('',#124);
#126=CARTESIAN_POINT('',(7.499999999999996,-8.723181E-016,-3.250000000000002));
#127=DIRECTION('',(1.0,0.0,0.0));
#128=VECTOR('',#127,20.0);
#129=LINE('',#126,#128);
#130=EDGE_CURVE('',#125,#93,#129,.T.);
#131=ORIENTED_EDGE('',*,*,#130,.F.);
#132=CARTESIAN_POINT('',(7.499999999999996,-8.723181E-016,-3.250000000000002));
#133=DIRECTION('',(0.0,-1.0,0.0));
#134=VECTOR('',#133,4.999999999999999);
#135=LINE('',#132,#134);
#136=EDGE_CURVE('',#125,#116,#135,.T.);
#137=ORIENTED_EDGE('',*,*,#136,.T.);
#138=EDGE_LOOP('',(#122,#123,#131,#137));
#139=FACE_OUTER_BOUND('',#138,.T.);
#140=ADVANCED_FACE('',(#139),#114,.F.);
#141=CARTESIAN_POINT('',(7.499999999999996,-8.723181E-016,0.0));
#142=DIRECTION('',(0.0,-1.0,0.0));
#143=DIRECTION('',(0.0,0.0,-1.0));
#144=AXIS2_PLACEMENT_3D('',#141,#142,#143);
#145=CYLINDRICAL_SURFACE('',#144,3.25);
#146=CARTESIAN_POINT('',(7.499999999999996,-5.0,3.25));
#147=VERTEX_POINT('',#146);
#148=CARTESIAN_POINT('',(7.499999999999996,-5.0,0.0));
#149=DIRECTION('',(0.0,1.0,0.0));
#150=DIRECTION('',(0.0,0.0,-1.0));
#151=AXIS2_PLACEMENT_3D('',#148,#149,#150);
#152=CIRCLE('',#151,3.25);
#153=EDGE_CURVE('',#116,#147,#152,.T.);
#154=ORIENTED_EDGE('',*,*,#153,.F.);
#155=ORIENTED_EDGE('',*,*,#136,.F.);
#156=CARTESIAN_POINT('',(7.499999999999996,-8.723181E-016,3.25));
#157=VERTEX_POINT('',#156);
#158=CARTESIAN_POINT('',(7.499999999999996,-1.110223E-015,0.0));
#159=DIRECTION('',(0.0,-1.0,0.0));
#160=DIRECTION('',(0.0,0.0,-1.0));
#161=AXIS2_PLACEMENT_3D('',#158,#159,#160);
#162=CIRCLE('',#161,3.25);
#163=EDGE_CURVE('',#157,#125,#162,.T.);
#164=ORIENTED_EDGE('',*,*,#163,.F.);
#165=CARTESIAN_POINT('',(7.499999999999996,-8.723181E-016,3.25));
#166=DIRECTION('',(0.0,-1.0,0.0));
#167=VECTOR('',#166,4.999999999999999);
#168=LINE('',#165,#167);
#169=EDGE_CURVE('',#157,#147,#168,.T.);
#170=ORIENTED_EDGE('',*,*,#169,.T.);
#171=EDGE_LOOP('',(#154,#155,#164,#170));
#172=FACE_OUTER_BOUND('',#171,.T.);
#173=ADVANCED_FACE('',(#172),#145,.F.);
#174=CARTESIAN_POINT('',(7.499999999999996,-8.723181E-016,3.25));
#175=DIRECTION('',(0.0,0.0,1.0));
#176=DIRECTION('',(1.0,0.0,0.0));
#177=AXIS2_PLACEMENT_3D('',#174,#175,#176);
#178=PLANE('',#177);
#179=CARTESIAN_POINT('',(7.499999999999996,-5.000000000000004,3.25));
#180=DIRECTION('',(1.0,0.0,0.0));
#181=VECTOR('',#180,20.0);
#182=LINE('',#179,#181);
#183=EDGE_CURVE('',#147,#74,#182,.T.);
#184=ORIENTED_EDGE('',*,*,#183,.F.);
#185=ORIENTED_EDGE('',*,*,#169,.F.);
#186=CARTESIAN_POINT('',(27.499999999999996,-2.379049E-016,3.25));
#187=DIRECTION('',(-1.0,0.0,0.0));
#188=VECTOR('',#187,20.0);
#189=LINE('',#186,#188);
#190=EDGE_CURVE('',#85,#157,#189,.T.);
#191=ORIENTED_EDGE('',*,*,#190,.F.);
#192=ORIENTED_EDGE('',*,*,#90,.T.);
#193=EDGE_LOOP('',(#184,#185,#191,#192));
#194=FACE_OUTER_BOUND('',#193,.T.);
#195=ADVANCED_FACE('',(#194),#178,.F.);
#196=CARTESIAN_POINT('',(-64.031242374328485,27.499999999999982,0.0));
#197=DIRECTION('',(1.0,1.491909E-016,0.0));
#198=DIRECTION('',(0.0,0.0,-1.0));
#199=AXIS2_PLACEMENT_3D('',#196,#197,#198);
#200=CYLINDRICAL_SURFACE('',#199,3.25);
#201=CARTESIAN_POINT('',(-5.000000000000009,27.499999999999993,3.25));
#202=VERTEX_POINT('',#201);
#203=CARTESIAN_POINT('',(-5.000000000000009,27.499999999999993,0.0));
#204=DIRECTION('',(1.0,0.0,0.0));
#205=DIRECTION('',(0.0,0.0,-1.0));
#206=AXIS2_PLACEMENT_3D('',#203,#204,#205);
#207=CIRCLE('',#206,3.25);
#208=EDGE_CURVE('',#202,#202,#207,.T.);
#209=ORIENTED_EDGE('',*,*,#208,.F.);
#210=EDGE_LOOP('',(#209));
#211=FACE_OUTER_BOUND('',#210,.T.);
#212=CARTESIAN_POINT('',(3.381425E-016,27.499999999999993,-3.25));
#213=VERTEX_POINT('',#212);
#214=CARTESIAN_POINT('',(0.0,27.499999999999993,0.0));
#215=DIRECTION('',(-1.0,0.0,0.0));
#216=DIRECTION('',(0.0,0.0,-1.0));
#217=AXIS2_PLACEMENT_3D('',#214,#215,#216);
#218=CIRCLE('',#217,3.25);
#219=EDGE_CURVE('',#213,#213,#218,.T.);
#220=ORIENTED_EDGE('',*,*,#219,.F.);
#221=EDGE_LOOP('',(#220));
#222=FACE_BOUND('',#221,.T.);
#223=ADVANCED_FACE('',(#211,#222),#200,.F.);
#224=CARTESIAN_POINT('',(-64.031242374328485,7.499999999999981,0.0));
#225=DIRECTION('',(1.0,1.491909E-016,0.0));
#226=DIRECTION('',(0.0,0.0,-1.0));
#227=AXIS2_PLACEMENT_3D('',#224,#225,#226);
#228=CYLINDRICAL_SURFACE('',#227,3.25);
#229=CARTESIAN_POINT('',(-5.0,7.499999999999989,3.25));
#230=VERTEX_POINT('',#229);
#231=CARTESIAN_POINT('',(-5.0,7.499999999999989,0.0));
#232=DIRECTION('',(1.0,0.0,0.0));
#233=DIRECTION('',(0.0,0.0,-1.0));
#234=AXIS2_PLACEMENT_3D('',#231,#232,#233);
#235=CIRCLE('',#234,3.25);
#236=EDGE_CURVE('',#230,#230,#235,.T.);
#237=ORIENTED_EDGE('',*,*,#236,.F.);
#238=EDGE_LOOP('',(#237));
#239=FACE_OUTER_BOUND('',#238,.T.);
#240=CARTESIAN_POINT('',(3.321960E-015,7.49999999999999,-3.25));
#241=VERTEX_POINT('',#240);
#242=CARTESIAN_POINT('',(0.0,7.49999999999999,0.0));
#243=DIRECTION('',(-1.0,0.0,0.0));
#244=DIRECTION('',(0.0,0.0,-1.0));
#245=AXIS2_PLACEMENT_3D('',#242,#243,#244);
#246=CIRCLE('',#245,3.25);
#247=EDGE_CURVE('',#241,#241,#246,.T.);
#248=ORIENTED_EDGE('',*,*,#247,.F.);
#249=EDGE_LOOP('',(#248));
#250=FACE_BOUND('',#249,.T.);
#251=ADVANCED_FACE('',(#239,#250),#228,.F.);
#252=CARTESIAN_POINT('',(7.343750000000001,7.343749999999996,-15.0));
#253=DIRECTION('',(0.0,0.0,1.0));
#254=DIRECTION('',(1.0,0.0,0.0));
#255=AXIS2_PLACEMENT_3D('',#252,#253,#254);
#256=PLANE('',#255);
#257=CARTESIAN_POINT('',(-5.0,-5.000000000000007,-15.0));
#258=VERTEX_POINT('',#257);
#259=CARTESIAN_POINT('',(35.0,-5.0,-15.0));
#260=VERTEX_POINT('',#259);
#261=CARTESIAN_POINT('',(-5.0,-5.000000000000007,-15.0));
#262=DIRECTION('',(1.0,0.0,0.0));
#263=VECTOR('',#262,40.0);
#264=LINE('',#261,#263);
#265=EDGE_CURVE('',#258,#260,#264,.T.);
#266=ORIENTED_EDGE('',*,*,#265,.F.);
#267=CARTESIAN_POINT('',(-5.000000000000001,34.999999999999993,-15.0));
#268=VERTEX_POINT('',#267);
#269=CARTESIAN_POINT('',(-5.000000000000001,34.999999999999993,-15.0));
#270=DIRECTION('',(0.0,-1.0,0.0));
#271=VECTOR('',#270,40.0);
#272=LINE('',#269,#271);
#273=EDGE_CURVE('',#268,#258,#272,.T.);
#274=ORIENTED_EDGE('',*,*,#273,.F.);
#275=CARTESIAN_POINT('',(-7.807893E-016,34.999999999999993,-15.0));
#276=VERTEX_POINT('',#275);
#277=CARTESIAN_POINT('',(-8.881784E-016,34.999999999999993,-15.0));
#278=DIRECTION('',(-1.0,0.0,0.0));
#279=VECTOR('',#278,5.0);
#280=LINE('',#277,#279);
#281=EDGE_CURVE('',#276,#268,#280,.T.);
#282=ORIENTED_EDGE('',*,*,#281,.F.);
#283=CARTESIAN_POINT('',(4.440892E-015,-1.110223E-015,-15.0));
#284=VERTEX_POINT('',#283);
#285=CARTESIAN_POINT('',(4.440892E-015,0.0,-15.0));
#286=DIRECTION('',(0.0,1.0,0.0));
#287=VECTOR('',#286,34.999999999999993);
#288=LINE('',#285,#287);
#289=EDGE_CURVE('',#284,#276,#288,.T.);
#290=ORIENTED_EDGE('',*,*,#289,.F.);
#291=CARTESIAN_POINT('',(34.999999999999993,0.0,-15.0));
#292=VERTEX_POINT('',#291);
#293=CARTESIAN_POINT('',(35.0,1.972152E-031,-15.0));
#294=DIRECTION('',(-1.0,0.0,0.0));
#295=VECTOR('',#294,34.999999999999993);
#296=LINE('',#293,#295);
#297=EDGE_CURVE('',#292,#284,#296,.T.);
#298=ORIENTED_EDGE('',*,*,#297,.F.);
#299=CARTESIAN_POINT('',(35.0,-5.0,-15.0));
#300=DIRECTION('',(0.0,1.0,0.0));
#301=VECTOR('',#300,5.0);
#302=LINE('',#299,#301);
#303=EDGE_CURVE('',#260,#292,#302,.T.);
#304=ORIENTED_EDGE('',*,*,#303,.F.);
#305=EDGE_LOOP('',(#266,#274,#282,#290,#298,#304));
#306=FACE_OUTER_BOUND('',#305,.T.);
#307=ADVANCED_FACE('',(#306),#256,.F.);
#308=CARTESIAN_POINT('',(-5.000000000000001,34.999999999999993,0.0));
#309=DIRECTION('',(0.0,1.0,0.0));
#310=DIRECTION('',(0.0,0.0,1.0));
#311=AXIS2_PLACEMENT_3D('',#308,#309,#310);
#312=PLANE('',#311);
#313=CARTESIAN_POINT('',(-5.000000000000001,34.999999999999993,15.0));
#314=VERTEX_POINT('',#313);
#315=CARTESIAN_POINT('',(-7.807893E-016,34.999999999999993,15.0));
#316=VERTEX_POINT('',#315);
#317=CARTESIAN_POINT('',(-5.000000000000001,34.999999999999993,15.0));
#318=DIRECTION('',(1.0,0.0,0.0));
#319=VECTOR('',#318,5.0);
#320=LINE('',#317,#319);
#321=EDGE_CURVE('',#314,#316,#320,.T.);
#322=ORIENTED_EDGE('',*,*,#321,.T.);
#323=CARTESIAN_POINT('',(-7.807893E-016,34.999999999999993,15.0));
#324=DIRECTION('',(0.0,0.0,-1.0));
#325=VECTOR('',#324,30.0);
#326=LINE('',#323,#325);
#327=EDGE_CURVE('',#316,#276,#326,.T.);
#328=ORIENTED_EDGE('',*,*,#327,.T.);
#329=ORIENTED_EDGE('',*,*,#281,.T.);
#330=CARTESIAN_POINT('',(-5.000000000000001,34.999999999999993,15.0));
#331=DIRECTION('',(0.0,0.0,-1.0));
#332=VECTOR('',#331,30.0);
#333=LINE('',#330,#332);
#334=EDGE_CURVE('',#314,#268,#333,.T.);
#335=ORIENTED_EDGE('',*,*,#334,.F.);
#336=EDGE_LOOP('',(#322,#328,#329,#335));
#337=FACE_OUTER_BOUND('',#336,.T.);
#338=ADVANCED_FACE('',(#337),#312,.T.);
#339=CARTESIAN_POINT('',(-7.807893E-016,34.999999999999993,0.0));
#340=DIRECTION('',(1.0,0.0,0.0));
#341=DIRECTION('',(0.0,0.0,-1.0));
#342=AXIS2_PLACEMENT_3D('',#339,#340,#341);
#343=PLANE('',#342);
#344=CARTESIAN_POINT('',(4.440892E-015,-1.110223E-015,15.0));
#345=VERTEX_POINT('',#344);
#346=CARTESIAN_POINT('',(-7.807893E-016,34.999999999999993,15.0));
#347=DIRECTION('',(0.0,-1.0,0.0));
#348=VECTOR('',#347,34.999999999999993);
#349=LINE('',#346,#348);
#350=EDGE_CURVE('',#316,#345,#349,.T.);
#351=ORIENTED_EDGE('',*,*,#350,.T.);
#352=CARTESIAN_POINT('',(4.440892E-015,-1.110223E-015,15.0));
#353=DIRECTION('',(0.0,0.0,-1.0));
#354=VECTOR('',#353,30.0);
#355=LINE('',#352,#354);
#356=EDGE_CURVE('',#345,#284,#355,.T.);
#357=ORIENTED_EDGE('',*,*,#356,.T.);
#358=ORIENTED_EDGE('',*,*,#289,.T.);
#359=ORIENTED_EDGE('',*,*,#327,.F.);
#360=EDGE_LOOP('',(#351,#357,#358,#359));
#361=FACE_OUTER_BOUND('',#360,.T.);
#362=ORIENTED_EDGE('',*,*,#219,.T.);
#363=EDGE_LOOP('',(#362));
#364=FACE_BOUND('',#363,.T.);
#365=ORIENTED_EDGE('',*,*,#247,.T.);
#366=EDGE_LOOP('',(#365));
#367=FACE_BOUND('',#366,.T.);
#368=ADVANCED_FACE('',(#361,#364,#367),#343,.T.);
#369=CARTESIAN_POINT('',(4.440892E-015,-1.110223E-015,0.0));
#370=DIRECTION('',(0.0,1.0,0.0));
#371=DIRECTION('',(0.0,0.0,1.0));
#372=AXIS2_PLACEMENT_3D('',#369,#370,#371);
#373=PLANE('',#372);
#374=CARTESIAN_POINT('',(34.999999999999993,0.0,15.0));
#375=VERTEX_POINT('',#374);
#376=CARTESIAN_POINT('',(4.440892E-015,-1.110223E-015,15.0));
#377=DIRECTION('',(1.0,0.0,0.0));
#378=VECTOR('',#377,34.999999999999993);
#379=LINE('',#376,#378);
#380=EDGE_CURVE('',#345,#375,#379,.T.);
#381=ORIENTED_EDGE('',*,*,#380,.T.);
#382=CARTESIAN_POINT('',(34.999999999999993,0.0,15.0));
#383=DIRECTION('',(0.0,0.0,-1.0));
#384=VECTOR('',#383,30.0);
#385=LINE('',#382,#384);
#386=EDGE_CURVE('',#375,#292,#385,.T.);
#387=ORIENTED_EDGE('',*,*,#386,.T.);
#388=ORIENTED_EDGE('',*,*,#297,.T.);
#389=ORIENTED_EDGE('',*,*,#356,.F.);
#390=EDGE_LOOP('',(#381,#387,#388,#389));
#391=FACE_OUTER_BOUND('',#390,.T.);
#392=ORIENTED_EDGE('',*,*,#99,.T.);
#393=ORIENTED_EDGE('',*,*,#190,.T.);
#394=ORIENTED_EDGE('',*,*,#163,.T.);
#395=ORIENTED_EDGE('',*,*,#130,.T.);
#396=EDGE_LOOP('',(#392,#393,#394,#395));
#397=FACE_BOUND('',#396,.T.);
#398=ADVANCED_FACE('',(#391,#397),#373,.T.);
#399=CARTESIAN_POINT('',(34.999999999999993,0.0,0.0));
#400=DIRECTION('',(1.0,0.0,0.0));
#401=DIRECTION('',(0.0,0.0,-1.0));
#402=AXIS2_PLACEMENT_3D('',#399,#400,#401);
#403=PLANE('',#402);
#404=CARTESIAN_POINT('',(35.0,-5.0,15.0));
#405=VERTEX_POINT('',#404);
#406=CARTESIAN_POINT('',(34.999999999999993,0.0,15.0));
#407=DIRECTION('',(0.0,-1.0,0.0));
#408=VECTOR('',#407,5.0);
#409=LINE('',#406,#408);
#410=EDGE_CURVE('',#375,#405,#409,.T.);
#411=ORIENTED_EDGE('',*,*,#410,.T.);
#412=CARTESIAN_POINT('',(35.0,-5.0,15.0));
#413=DIRECTION('',(0.0,0.0,-1.0));
#414=VECTOR('',#413,30.0);
#415=LINE('',#412,#414);
#416=EDGE_CURVE('',#405,#260,#415,.T.);
#417=ORIENTED_EDGE('',*,*,#416,.T.);
#418=ORIENTED_EDGE('',*,*,#303,.T.);
#419=ORIENTED_EDGE('',*,*,#386,.F.);
#420=EDGE_LOOP('',(#411,#417,#418,#419));
#421=FACE_OUTER_BOUND('',#420,.T.);
#422=ADVANCED_FACE('',(#421),#403,.T.);
#423=CARTESIAN_POINT('',(35.0,-5.0,0.0));
#424=DIRECTION('',(0.0,-1.0,0.0));
#425=DIRECTION('',(0.0,0.0,-1.0));
#426=AXIS2_PLACEMENT_3D('',#423,#424,#425);
#427=PLANE('',#426);
#428=CARTESIAN_POINT('',(-5.0,-5.000000000000007,15.0));
#429=VERTEX_POINT('',#428);
#430=CARTESIAN_POINT('',(35.0,-5.0,15.0));
#431=DIRECTION('',(-1.0,0.0,0.0));
#432=VECTOR('',#431,40.0);
#433=LINE('',#430,#432);
#434=EDGE_CURVE('',#405,#429,#433,.T.);
#435=ORIENTED_EDGE('',*,*,#434,.T.);
#436=CARTESIAN_POINT('',(-5.0,-5.000000000000007,-15.0));
#437=DIRECTION('',(0.0,0.0,1.0));
#438=VECTOR('',#437,30.0);
#439=LINE('',#436,#438);
#440=EDGE_CURVE('',#258,#429,#439,.T.);
#441=ORIENTED_EDGE('',*,*,#440,.F.);
#442=ORIENTED_EDGE('',*,*,#265,.T.);
#443=ORIENTED_EDGE('',*,*,#416,.F.);
#444=EDGE_LOOP('',(#435,#441,#442,#443));
#445=FACE_OUTER_BOUND('',#444,.T.);
#446=ORIENTED_EDGE('',*,*,#82,.T.);
#447=ORIENTED_EDGE('',*,*,#121,.T.);
#448=ORIENTED_EDGE('',*,*,#153,.T.);
#449=ORIENTED_EDGE('',*,*,#183,.T.);
#450=EDGE_LOOP('',(#446,#447,#448,#449));
#451=FACE_BOUND('',#450,.T.);
#452=ADVANCED_FACE('',(#445,#451),#427,.T.);
#453=CARTESIAN_POINT('',(-5.0,-5.000000000000007,0.0));
#454=DIRECTION('',(-1.0,0.0,0.0));
#455=DIRECTION('',(0.0,0.0,1.0));
#456=AXIS2_PLACEMENT_3D('',#453,#454,#455);
#457=PLANE('',#456);
#458=CARTESIAN_POINT('',(-5.0,-5.000000000000007,15.0));
#459=DIRECTION('',(0.0,1.0,0.0));
#460=VECTOR('',#459,40.0);
#461=LINE('',#458,#460);
#462=EDGE_CURVE('',#429,#314,#461,.T.);
#463=ORIENTED_EDGE('',*,*,#462,.T.);
#464=ORIENTED_EDGE('',*,*,#334,.T.);
#465=ORIENTED_EDGE('',*,*,#273,.T.);
#466=ORIENTED_EDGE('',*,*,#440,.T.);
#467=EDGE_LOOP('',(#463,#464,#465,#466));
#468=FACE_OUTER_BOUND('',#467,.T.);
#469=ORIENTED_EDGE('',*,*,#208,.T.);
#470=EDGE_LOOP('',(#469));
#471=FACE_BOUND('',#470,.T.);
#472=ORIENTED_EDGE('',*,*,#236,.T.);
#473=EDGE_LOOP('',(#472));
#474=FACE_BOUND('',#473,.T.);
#475=ADVANCED_FACE('',(#468,#471,#474),#457,.T.);
#476=CARTESIAN_POINT('',(7.343749999999999,7.343749999999996,15.0));
#477=DIRECTION('',(0.0,0.0,1.0));
#478=DIRECTION('',(1.0,0.0,0.0));
#479=AXIS2_PLACEMENT_3D('',#476,#477,#478);
#480=PLANE('',#479);
#481=ORIENTED_EDGE('',*,*,#321,.F.);
#482=ORIENTED_EDGE('',*,*,#462,.F.);
#483=ORIENTED_EDGE('',*,*,#434,.F.);
#484=ORIENTED_EDGE('',*,*,#410,.F.);
#485=ORIENTED_EDGE('',*,*,#380,.F.);
#486=ORIENTED_EDGE('',*,*,#350,.F.);
#487=EDGE_LOOP('',(#481,#482,#483,#484,#485,#486));
#488=FACE_OUTER_BOUND('',#487,.T.);
#489=ADVANCED_FACE('',(#488),#480,.T.);
#490=CLOSED_SHELL('',(#109,#140,#173,#195,#223,#251,#307,#338,#368,#398,#422,#452,#475,#489));
#491=MANIFOLD_SOLID_BREP('Volumenk\S\vrper1',#490);
#492=COLOUR_RGB('Aluminium (gleichm\X2\FFFDFFFD\X0\ig)',0.847059011459351,0.839215993881226,0.839215993881226);
#493=FILL_AREA_STYLE_COLOUR('Aluminium (gleichm\X2\FFFDFFFD\X0\ig)',#492);
#494=FILL_AREA_STYLE('Aluminium (gleichm\X2\FFFDFFFD\X0\ig)',(#493));
#495=SURFACE_STYLE_FILL_AREA(#494);
#496=SURFACE_SIDE_STYLE('Aluminium (gleichm\X2\FFFDFFFD\X0\ig)',(#495));
#497=SURFACE_STYLE_USAGE(.BOTH.,#496);
#498=PRESENTATION_STYLE_ASSIGNMENT((#497));
#499=STYLED_ITEM('',(#498),#491);
#500=MECHANICAL_DESIGN_GEOMETRIC_PRESENTATION_REPRESENTATION('',(#499),#36);
#501=ADVANCED_BREP_SHAPE_REPRESENTATION('ABSR',(#491),#36);
#502=SHAPE_REPRESENTATION_RELATIONSHIP('SRR','None',#501,#41);
ENDSEC;
END-ISO-10303-21;
