ISO-10303-21;
HEADER;
/* Generated by software containing ST-Developer
 * from STEP Tools, Inc. (www.steptools.com) 
 */

FILE_DESCRIPTION(
/* description */ ('Befestigungswinkel 80 x 80'),
/* implementation_level */ '2;1');

FILE_NAME(
/* name */ 'Q:\\ExterneArtikel_Webseite_Palkat\\SZ\\SZ0985N-A.stp',
/* time_stamp */ '2015-11-19T15:36:08+01:00',
/* author */ ('Marina Kaa'),
/* organization */ (''),
/* preprocessor_version */ 'ST-DEVELOPER v15.6',
/* originating_system */ 'Autodesk Inventor 2015',
/* authorisation */ '');

FILE_SCHEMA (('AUTOMOTIVE_DESIGN { 1 0 10303 214 3 1 1 }'));
ENDSEC;

DATA;
#10=MECHANICAL_DESIGN_GEOMETRIC_PRESENTATION_REPRESENTATION('',(#13),#638);
#11=SHAPE_REPRESENTATION_RELATIONSHIP('SRR','None',#647,#12);
#12=ADVANCED_BREP_SHAPE_REPRESENTATION($,(#14),#637);
#13=STYLED_ITEM('',(#656),#14);
#14=MANIFOLD_SOLID_BREP('Volumenk\X\F6rper1',#374);
#15=LINE('',#582,#36);
#16=LINE('',#584,#37);
#17=LINE('',#586,#38);
#18=LINE('',#588,#39);
#19=LINE('',#592,#40);
#20=LINE('',#596,#41);
#21=LINE('',#601,#42);
#22=LINE('',#602,#43);
#23=LINE('',#603,#44);
#24=LINE('',#606,#45);
#25=LINE('',#607,#46);
#26=LINE('',#611,#47);
#27=LINE('',#614,#48);
#28=LINE('',#615,#49);
#29=LINE('',#619,#50);
#30=LINE('',#622,#51);
#31=LINE('',#623,#52);
#32=LINE('',#627,#53);
#33=LINE('',#630,#54);
#34=LINE('',#631,#55);
#35=LINE('',#633,#56);
#36=VECTOR('',#481,16.5);
#37=VECTOR('',#482,80.);
#38=VECTOR('',#483,80.);
#39=VECTOR('',#484,16.5);
#40=VECTOR('',#487,30.5);
#41=VECTOR('',#490,30.5);
#42=VECTOR('',#495,80.);
#43=VECTOR('',#496,80.);
#44=VECTOR('',#497,80.);
#45=VECTOR('',#500,16.5);
#46=VECTOR('',#501,80.);
#47=VECTOR('',#506,80.);
#48=VECTOR('',#509,30.5);
#49=VECTOR('',#510,80.);
#50=VECTOR('',#515,80.);
#51=VECTOR('',#518,30.5);
#52=VECTOR('',#519,80.);
#53=VECTOR('',#524,80.);
#54=VECTOR('',#527,16.5);
#55=VECTOR('',#528,80.);
#56=VECTOR('',#531,80.);
#57=CYLINDRICAL_SURFACE('',#379,7.5);
#58=CYLINDRICAL_SURFACE('',#381,4.5);
#59=CYLINDRICAL_SURFACE('',#386,7.5);
#60=CYLINDRICAL_SURFACE('',#388,4.5);
#61=CYLINDRICAL_SURFACE('',#393,7.5);
#62=CYLINDRICAL_SURFACE('',#395,4.5);
#63=CYLINDRICAL_SURFACE('',#400,7.5);
#64=CYLINDRICAL_SURFACE('',#402,4.5);
#65=CYLINDRICAL_SURFACE('',#410,3.5);
#66=CYLINDRICAL_SURFACE('',#413,26.);
#67=CYLINDRICAL_SURFACE('',#416,3.5);
#68=FACE_BOUND('',#112,.T.);
#69=FACE_BOUND('',#114,.T.);
#70=FACE_BOUND('',#116,.T.);
#71=FACE_BOUND('',#118,.T.);
#72=FACE_BOUND('',#120,.T.);
#73=FACE_BOUND('',#122,.T.);
#74=FACE_BOUND('',#124,.T.);
#75=FACE_BOUND('',#126,.T.);
#76=FACE_BOUND('',#128,.T.);
#77=FACE_BOUND('',#130,.T.);
#78=FACE_BOUND('',#132,.T.);
#79=FACE_BOUND('',#134,.T.);
#80=FACE_BOUND('',#137,.T.);
#81=FACE_BOUND('',#138,.T.);
#82=FACE_BOUND('',#142,.T.);
#83=FACE_BOUND('',#143,.T.);
#84=FACE_BOUND('',#146,.T.);
#85=FACE_BOUND('',#147,.T.);
#86=FACE_BOUND('',#151,.T.);
#87=FACE_BOUND('',#152,.T.);
#88=FACE_OUTER_BOUND('',#111,.T.);
#89=FACE_OUTER_BOUND('',#113,.T.);
#90=FACE_OUTER_BOUND('',#115,.T.);
#91=FACE_OUTER_BOUND('',#117,.T.);
#92=FACE_OUTER_BOUND('',#119,.T.);
#93=FACE_OUTER_BOUND('',#121,.T.);
#94=FACE_OUTER_BOUND('',#123,.T.);
#95=FACE_OUTER_BOUND('',#125,.T.);
#96=FACE_OUTER_BOUND('',#127,.T.);
#97=FACE_OUTER_BOUND('',#129,.T.);
#98=FACE_OUTER_BOUND('',#131,.T.);
#99=FACE_OUTER_BOUND('',#133,.T.);
#100=FACE_OUTER_BOUND('',#135,.T.);
#101=FACE_OUTER_BOUND('',#136,.T.);
#102=FACE_OUTER_BOUND('',#139,.T.);
#103=FACE_OUTER_BOUND('',#140,.T.);
#104=FACE_OUTER_BOUND('',#141,.T.);
#105=FACE_OUTER_BOUND('',#144,.T.);
#106=FACE_OUTER_BOUND('',#145,.T.);
#107=FACE_OUTER_BOUND('',#148,.T.);
#108=FACE_OUTER_BOUND('',#149,.T.);
#109=FACE_OUTER_BOUND('',#150,.T.);
#110=FACE_OUTER_BOUND('',#153,.T.);
#111=EDGE_LOOP('',(#253));
#112=EDGE_LOOP('',(#254));
#113=EDGE_LOOP('',(#255));
#114=EDGE_LOOP('',(#256));
#115=EDGE_LOOP('',(#257));
#116=EDGE_LOOP('',(#258));
#117=EDGE_LOOP('',(#259));
#118=EDGE_LOOP('',(#260));
#119=EDGE_LOOP('',(#261));
#120=EDGE_LOOP('',(#262));
#121=EDGE_LOOP('',(#263));
#122=EDGE_LOOP('',(#264));
#123=EDGE_LOOP('',(#265));
#124=EDGE_LOOP('',(#266));
#125=EDGE_LOOP('',(#267));
#126=EDGE_LOOP('',(#268));
#127=EDGE_LOOP('',(#269));
#128=EDGE_LOOP('',(#270));
#129=EDGE_LOOP('',(#271));
#130=EDGE_LOOP('',(#272));
#131=EDGE_LOOP('',(#273));
#132=EDGE_LOOP('',(#274));
#133=EDGE_LOOP('',(#275));
#134=EDGE_LOOP('',(#276));
#135=EDGE_LOOP('',(#277,#278,#279,#280,#281,#282,#283,#284,#285));
#136=EDGE_LOOP('',(#286,#287,#288,#289));
#137=EDGE_LOOP('',(#290));
#138=EDGE_LOOP('',(#291));
#139=EDGE_LOOP('',(#292,#293,#294,#295));
#140=EDGE_LOOP('',(#296,#297,#298,#299));
#141=EDGE_LOOP('',(#300,#301,#302,#303));
#142=EDGE_LOOP('',(#304));
#143=EDGE_LOOP('',(#305));
#144=EDGE_LOOP('',(#306,#307,#308,#309));
#145=EDGE_LOOP('',(#310,#311,#312,#313));
#146=EDGE_LOOP('',(#314));
#147=EDGE_LOOP('',(#315));
#148=EDGE_LOOP('',(#316,#317,#318,#319));
#149=EDGE_LOOP('',(#320,#321,#322,#323));
#150=EDGE_LOOP('',(#324,#325,#326,#327));
#151=EDGE_LOOP('',(#328));
#152=EDGE_LOOP('',(#329));
#153=EDGE_LOOP('',(#330,#331,#332,#333,#334,#335,#336,#337,#338));
#154=CIRCLE('',#377,7.5);
#155=CIRCLE('',#378,4.5);
#156=CIRCLE('',#380,7.5);
#157=CIRCLE('',#382,4.5);
#158=CIRCLE('',#384,7.5);
#159=CIRCLE('',#385,4.5);
#160=CIRCLE('',#387,7.5);
#161=CIRCLE('',#389,4.5);
#162=CIRCLE('',#391,7.5);
#163=CIRCLE('',#392,4.5);
#164=CIRCLE('',#394,7.5);
#165=CIRCLE('',#396,4.5);
#166=CIRCLE('',#398,7.5);
#167=CIRCLE('',#399,4.5);
#168=CIRCLE('',#401,7.5);
#169=CIRCLE('',#403,4.5);
#170=CIRCLE('',#405,3.5);
#171=CIRCLE('',#406,26.);
#172=CIRCLE('',#407,3.5);
#173=CIRCLE('',#411,3.5);
#174=CIRCLE('',#414,26.);
#175=CIRCLE('',#417,3.5);
#176=VERTEX_POINT('',#536);
#177=VERTEX_POINT('',#538);
#178=VERTEX_POINT('',#541);
#179=VERTEX_POINT('',#544);
#180=VERTEX_POINT('',#547);
#181=VERTEX_POINT('',#549);
#182=VERTEX_POINT('',#552);
#183=VERTEX_POINT('',#555);
#184=VERTEX_POINT('',#558);
#185=VERTEX_POINT('',#560);
#186=VERTEX_POINT('',#563);
#187=VERTEX_POINT('',#566);
#188=VERTEX_POINT('',#569);
#189=VERTEX_POINT('',#571);
#190=VERTEX_POINT('',#574);
#191=VERTEX_POINT('',#577);
#192=VERTEX_POINT('',#580);
#193=VERTEX_POINT('',#581);
#194=VERTEX_POINT('',#583);
#195=VERTEX_POINT('',#585);
#196=VERTEX_POINT('',#587);
#197=VERTEX_POINT('',#589);
#198=VERTEX_POINT('',#591);
#199=VERTEX_POINT('',#593);
#200=VERTEX_POINT('',#595);
#201=VERTEX_POINT('',#599);
#202=VERTEX_POINT('',#600);
#203=VERTEX_POINT('',#605);
#204=VERTEX_POINT('',#609);
#205=VERTEX_POINT('',#613);
#206=VERTEX_POINT('',#617);
#207=VERTEX_POINT('',#621);
#208=VERTEX_POINT('',#625);
#209=VERTEX_POINT('',#629);
#210=EDGE_CURVE('',#176,#176,#154,.T.);
#211=EDGE_CURVE('',#177,#177,#155,.T.);
#212=EDGE_CURVE('',#178,#178,#156,.T.);
#213=EDGE_CURVE('',#179,#179,#157,.T.);
#214=EDGE_CURVE('',#180,#180,#158,.T.);
#215=EDGE_CURVE('',#181,#181,#159,.T.);
#216=EDGE_CURVE('',#182,#182,#160,.T.);
#217=EDGE_CURVE('',#183,#183,#161,.T.);
#218=EDGE_CURVE('',#184,#184,#162,.T.);
#219=EDGE_CURVE('',#185,#185,#163,.T.);
#220=EDGE_CURVE('',#186,#186,#164,.T.);
#221=EDGE_CURVE('',#187,#187,#165,.T.);
#222=EDGE_CURVE('',#188,#188,#166,.T.);
#223=EDGE_CURVE('',#189,#189,#167,.T.);
#224=EDGE_CURVE('',#190,#190,#168,.T.);
#225=EDGE_CURVE('',#191,#191,#169,.T.);
#226=EDGE_CURVE('',#192,#193,#15,.T.);
#227=EDGE_CURVE('',#194,#192,#16,.T.);
#228=EDGE_CURVE('',#195,#194,#17,.T.);
#229=EDGE_CURVE('',#196,#195,#18,.T.);
#230=EDGE_CURVE('',#197,#196,#170,.T.);
#231=EDGE_CURVE('',#198,#197,#19,.T.);
#232=EDGE_CURVE('',#199,#198,#171,.T.);
#233=EDGE_CURVE('',#200,#199,#20,.T.);
#234=EDGE_CURVE('',#193,#200,#172,.T.);
#235=EDGE_CURVE('',#201,#202,#21,.T.);
#236=EDGE_CURVE('',#195,#202,#22,.T.);
#237=EDGE_CURVE('',#201,#194,#23,.T.);
#238=EDGE_CURVE('',#202,#203,#24,.T.);
#239=EDGE_CURVE('',#196,#203,#25,.T.);
#240=EDGE_CURVE('',#203,#204,#173,.T.);
#241=EDGE_CURVE('',#197,#204,#26,.T.);
#242=EDGE_CURVE('',#204,#205,#27,.T.);
#243=EDGE_CURVE('',#198,#205,#28,.T.);
#244=EDGE_CURVE('',#205,#206,#174,.T.);
#245=EDGE_CURVE('',#199,#206,#29,.T.);
#246=EDGE_CURVE('',#206,#207,#30,.T.);
#247=EDGE_CURVE('',#200,#207,#31,.T.);
#248=EDGE_CURVE('',#207,#208,#175,.T.);
#249=EDGE_CURVE('',#193,#208,#32,.T.);
#250=EDGE_CURVE('',#208,#209,#33,.T.);
#251=EDGE_CURVE('',#192,#209,#34,.T.);
#252=EDGE_CURVE('',#209,#201,#35,.T.);
#253=ORIENTED_EDGE('',*,*,#210,.T.);
#254=ORIENTED_EDGE('',*,*,#211,.F.);
#255=ORIENTED_EDGE('',*,*,#212,.F.);
#256=ORIENTED_EDGE('',*,*,#210,.F.);
#257=ORIENTED_EDGE('',*,*,#213,.F.);
#258=ORIENTED_EDGE('',*,*,#211,.T.);
#259=ORIENTED_EDGE('',*,*,#214,.T.);
#260=ORIENTED_EDGE('',*,*,#215,.F.);
#261=ORIENTED_EDGE('',*,*,#216,.F.);
#262=ORIENTED_EDGE('',*,*,#214,.F.);
#263=ORIENTED_EDGE('',*,*,#217,.F.);
#264=ORIENTED_EDGE('',*,*,#215,.T.);
#265=ORIENTED_EDGE('',*,*,#218,.T.);
#266=ORIENTED_EDGE('',*,*,#219,.F.);
#267=ORIENTED_EDGE('',*,*,#220,.F.);
#268=ORIENTED_EDGE('',*,*,#218,.F.);
#269=ORIENTED_EDGE('',*,*,#221,.F.);
#270=ORIENTED_EDGE('',*,*,#219,.T.);
#271=ORIENTED_EDGE('',*,*,#222,.T.);
#272=ORIENTED_EDGE('',*,*,#223,.F.);
#273=ORIENTED_EDGE('',*,*,#224,.F.);
#274=ORIENTED_EDGE('',*,*,#222,.F.);
#275=ORIENTED_EDGE('',*,*,#225,.F.);
#276=ORIENTED_EDGE('',*,*,#223,.T.);
#277=ORIENTED_EDGE('',*,*,#226,.F.);
#278=ORIENTED_EDGE('',*,*,#227,.F.);
#279=ORIENTED_EDGE('',*,*,#228,.F.);
#280=ORIENTED_EDGE('',*,*,#229,.F.);
#281=ORIENTED_EDGE('',*,*,#230,.F.);
#282=ORIENTED_EDGE('',*,*,#231,.F.);
#283=ORIENTED_EDGE('',*,*,#232,.F.);
#284=ORIENTED_EDGE('',*,*,#233,.F.);
#285=ORIENTED_EDGE('',*,*,#234,.F.);
#286=ORIENTED_EDGE('',*,*,#235,.T.);
#287=ORIENTED_EDGE('',*,*,#236,.F.);
#288=ORIENTED_EDGE('',*,*,#228,.T.);
#289=ORIENTED_EDGE('',*,*,#237,.F.);
#290=ORIENTED_EDGE('',*,*,#221,.T.);
#291=ORIENTED_EDGE('',*,*,#225,.T.);
#292=ORIENTED_EDGE('',*,*,#238,.T.);
#293=ORIENTED_EDGE('',*,*,#239,.F.);
#294=ORIENTED_EDGE('',*,*,#229,.T.);
#295=ORIENTED_EDGE('',*,*,#236,.T.);
#296=ORIENTED_EDGE('',*,*,#240,.T.);
#297=ORIENTED_EDGE('',*,*,#241,.F.);
#298=ORIENTED_EDGE('',*,*,#230,.T.);
#299=ORIENTED_EDGE('',*,*,#239,.T.);
#300=ORIENTED_EDGE('',*,*,#242,.T.);
#301=ORIENTED_EDGE('',*,*,#243,.F.);
#302=ORIENTED_EDGE('',*,*,#231,.T.);
#303=ORIENTED_EDGE('',*,*,#241,.T.);
#304=ORIENTED_EDGE('',*,*,#220,.T.);
#305=ORIENTED_EDGE('',*,*,#224,.T.);
#306=ORIENTED_EDGE('',*,*,#244,.T.);
#307=ORIENTED_EDGE('',*,*,#245,.F.);
#308=ORIENTED_EDGE('',*,*,#232,.T.);
#309=ORIENTED_EDGE('',*,*,#243,.T.);
#310=ORIENTED_EDGE('',*,*,#246,.T.);
#311=ORIENTED_EDGE('',*,*,#247,.F.);
#312=ORIENTED_EDGE('',*,*,#233,.T.);
#313=ORIENTED_EDGE('',*,*,#245,.T.);
#314=ORIENTED_EDGE('',*,*,#212,.T.);
#315=ORIENTED_EDGE('',*,*,#216,.T.);
#316=ORIENTED_EDGE('',*,*,#248,.T.);
#317=ORIENTED_EDGE('',*,*,#249,.F.);
#318=ORIENTED_EDGE('',*,*,#234,.T.);
#319=ORIENTED_EDGE('',*,*,#247,.T.);
#320=ORIENTED_EDGE('',*,*,#250,.T.);
#321=ORIENTED_EDGE('',*,*,#251,.F.);
#322=ORIENTED_EDGE('',*,*,#226,.T.);
#323=ORIENTED_EDGE('',*,*,#249,.T.);
#324=ORIENTED_EDGE('',*,*,#252,.T.);
#325=ORIENTED_EDGE('',*,*,#237,.T.);
#326=ORIENTED_EDGE('',*,*,#227,.T.);
#327=ORIENTED_EDGE('',*,*,#251,.T.);
#328=ORIENTED_EDGE('',*,*,#213,.T.);
#329=ORIENTED_EDGE('',*,*,#217,.T.);
#330=ORIENTED_EDGE('',*,*,#235,.F.);
#331=ORIENTED_EDGE('',*,*,#252,.F.);
#332=ORIENTED_EDGE('',*,*,#250,.F.);
#333=ORIENTED_EDGE('',*,*,#248,.F.);
#334=ORIENTED_EDGE('',*,*,#246,.F.);
#335=ORIENTED_EDGE('',*,*,#244,.F.);
#336=ORIENTED_EDGE('',*,*,#242,.F.);
#337=ORIENTED_EDGE('',*,*,#240,.F.);
#338=ORIENTED_EDGE('',*,*,#238,.F.);
#339=PLANE('',#376);
#340=PLANE('',#383);
#341=PLANE('',#390);
#342=PLANE('',#397);
#343=PLANE('',#404);
#344=PLANE('',#408);
#345=PLANE('',#409);
#346=PLANE('',#412);
#347=PLANE('',#415);
#348=PLANE('',#418);
#349=PLANE('',#419);
#350=PLANE('',#420);
#351=ADVANCED_FACE('',(#88,#68),#339,.T.);
#352=ADVANCED_FACE('',(#89,#69),#57,.F.);
#353=ADVANCED_FACE('',(#90,#70),#58,.F.);
#354=ADVANCED_FACE('',(#91,#71),#340,.T.);
#355=ADVANCED_FACE('',(#92,#72),#59,.F.);
#356=ADVANCED_FACE('',(#93,#73),#60,.F.);
#357=ADVANCED_FACE('',(#94,#74),#341,.T.);
#358=ADVANCED_FACE('',(#95,#75),#61,.F.);
#359=ADVANCED_FACE('',(#96,#76),#62,.F.);
#360=ADVANCED_FACE('',(#97,#77),#342,.T.);
#361=ADVANCED_FACE('',(#98,#78),#63,.F.);
#362=ADVANCED_FACE('',(#99,#79),#64,.F.);
#363=ADVANCED_FACE('',(#100),#343,.F.);
#364=ADVANCED_FACE('',(#101,#80,#81),#344,.T.);
#365=ADVANCED_FACE('',(#102),#345,.T.);
#366=ADVANCED_FACE('',(#103),#65,.T.);
#367=ADVANCED_FACE('',(#104,#82,#83),#346,.T.);
#368=ADVANCED_FACE('',(#105),#66,.F.);
#369=ADVANCED_FACE('',(#106,#84,#85),#347,.T.);
#370=ADVANCED_FACE('',(#107),#67,.T.);
#371=ADVANCED_FACE('',(#108),#348,.T.);
#372=ADVANCED_FACE('',(#109,#86,#87),#349,.T.);
#373=ADVANCED_FACE('',(#110),#350,.T.);
#374=CLOSED_SHELL('',(#351,#352,#353,#354,#355,#356,#357,#358,#359,#360,
#361,#362,#363,#364,#365,#366,#367,#368,#369,#370,#371,#372,#373));
#375=AXIS2_PLACEMENT_3D('placement',#534,#421,#422);
#376=AXIS2_PLACEMENT_3D('',#535,#423,#424);
#377=AXIS2_PLACEMENT_3D('',#537,#425,#426);
#378=AXIS2_PLACEMENT_3D('',#539,#427,#428);
#379=AXIS2_PLACEMENT_3D('',#540,#429,#430);
#380=AXIS2_PLACEMENT_3D('',#542,#431,#432);
#381=AXIS2_PLACEMENT_3D('',#543,#433,#434);
#382=AXIS2_PLACEMENT_3D('',#545,#435,#436);
#383=AXIS2_PLACEMENT_3D('',#546,#437,#438);
#384=AXIS2_PLACEMENT_3D('',#548,#439,#440);
#385=AXIS2_PLACEMENT_3D('',#550,#441,#442);
#386=AXIS2_PLACEMENT_3D('',#551,#443,#444);
#387=AXIS2_PLACEMENT_3D('',#553,#445,#446);
#388=AXIS2_PLACEMENT_3D('',#554,#447,#448);
#389=AXIS2_PLACEMENT_3D('',#556,#449,#450);
#390=AXIS2_PLACEMENT_3D('',#557,#451,#452);
#391=AXIS2_PLACEMENT_3D('',#559,#453,#454);
#392=AXIS2_PLACEMENT_3D('',#561,#455,#456);
#393=AXIS2_PLACEMENT_3D('',#562,#457,#458);
#394=AXIS2_PLACEMENT_3D('',#564,#459,#460);
#395=AXIS2_PLACEMENT_3D('',#565,#461,#462);
#396=AXIS2_PLACEMENT_3D('',#567,#463,#464);
#397=AXIS2_PLACEMENT_3D('',#568,#465,#466);
#398=AXIS2_PLACEMENT_3D('',#570,#467,#468);
#399=AXIS2_PLACEMENT_3D('',#572,#469,#470);
#400=AXIS2_PLACEMENT_3D('',#573,#471,#472);
#401=AXIS2_PLACEMENT_3D('',#575,#473,#474);
#402=AXIS2_PLACEMENT_3D('',#576,#475,#476);
#403=AXIS2_PLACEMENT_3D('',#578,#477,#478);
#404=AXIS2_PLACEMENT_3D('',#579,#479,#480);
#405=AXIS2_PLACEMENT_3D('',#590,#485,#486);
#406=AXIS2_PLACEMENT_3D('',#594,#488,#489);
#407=AXIS2_PLACEMENT_3D('',#597,#491,#492);
#408=AXIS2_PLACEMENT_3D('',#598,#493,#494);
#409=AXIS2_PLACEMENT_3D('',#604,#498,#499);
#410=AXIS2_PLACEMENT_3D('',#608,#502,#503);
#411=AXIS2_PLACEMENT_3D('',#610,#504,#505);
#412=AXIS2_PLACEMENT_3D('',#612,#507,#508);
#413=AXIS2_PLACEMENT_3D('',#616,#511,#512);
#414=AXIS2_PLACEMENT_3D('',#618,#513,#514);
#415=AXIS2_PLACEMENT_3D('',#620,#516,#517);
#416=AXIS2_PLACEMENT_3D('',#624,#520,#521);
#417=AXIS2_PLACEMENT_3D('',#626,#522,#523);
#418=AXIS2_PLACEMENT_3D('',#628,#525,#526);
#419=AXIS2_PLACEMENT_3D('',#632,#529,#530);
#420=AXIS2_PLACEMENT_3D('',#634,#532,#533);
#421=DIRECTION('axis',(0.,0.,1.));
#422=DIRECTION('refdir',(1.,0.,0.));
#423=DIRECTION('center_axis',(0.,1.,0.));
#424=DIRECTION('ref_axis',(1.,0.,0.));
#425=DIRECTION('center_axis',(0.,1.,0.));
#426=DIRECTION('ref_axis',(1.,0.,0.));
#427=DIRECTION('center_axis',(0.,1.,0.));
#428=DIRECTION('ref_axis',(1.,0.,0.));
#429=DIRECTION('center_axis',(0.,1.,0.));
#430=DIRECTION('ref_axis',(1.,0.,0.));
#431=DIRECTION('center_axis',(0.,-1.,0.));
#432=DIRECTION('ref_axis',(1.,0.,0.));
#433=DIRECTION('center_axis',(0.,1.,0.));
#434=DIRECTION('ref_axis',(1.,0.,0.));
#435=DIRECTION('center_axis',(0.,1.,0.));
#436=DIRECTION('ref_axis',(1.,0.,0.));
#437=DIRECTION('center_axis',(0.,1.,0.));
#438=DIRECTION('ref_axis',(1.,0.,0.));
#439=DIRECTION('center_axis',(0.,1.,0.));
#440=DIRECTION('ref_axis',(1.,0.,0.));
#441=DIRECTION('center_axis',(0.,1.,0.));
#442=DIRECTION('ref_axis',(1.,0.,0.));
#443=DIRECTION('center_axis',(0.,1.,0.));
#444=DIRECTION('ref_axis',(1.,0.,0.));
#445=DIRECTION('center_axis',(0.,-1.,0.));
#446=DIRECTION('ref_axis',(1.,0.,0.));
#447=DIRECTION('center_axis',(0.,1.,0.));
#448=DIRECTION('ref_axis',(1.,0.,0.));
#449=DIRECTION('center_axis',(0.,1.,0.));
#450=DIRECTION('ref_axis',(1.,0.,0.));
#451=DIRECTION('center_axis',(1.,1.45603019622971E-16,0.));
#452=DIRECTION('ref_axis',(0.,0.,-1.));
#453=DIRECTION('center_axis',(1.,1.45603019622971E-16,0.));
#454=DIRECTION('ref_axis',(0.,0.,-1.));
#455=DIRECTION('center_axis',(1.,1.45603019622971E-16,0.));
#456=DIRECTION('ref_axis',(0.,0.,-1.));
#457=DIRECTION('center_axis',(1.,1.45603019622971E-16,0.));
#458=DIRECTION('ref_axis',(0.,0.,-1.));
#459=DIRECTION('center_axis',(-1.,-1.45603019622971E-16,0.));
#460=DIRECTION('ref_axis',(0.,0.,-1.));
#461=DIRECTION('center_axis',(1.,1.45603019622971E-16,0.));
#462=DIRECTION('ref_axis',(0.,0.,-1.));
#463=DIRECTION('center_axis',(1.,0.,0.));
#464=DIRECTION('ref_axis',(0.,0.,-1.));
#465=DIRECTION('center_axis',(1.,1.45603019622971E-16,0.));
#466=DIRECTION('ref_axis',(0.,0.,-1.));
#467=DIRECTION('center_axis',(1.,1.45603019622971E-16,0.));
#468=DIRECTION('ref_axis',(0.,0.,-1.));
#469=DIRECTION('center_axis',(1.,1.45603019622971E-16,0.));
#470=DIRECTION('ref_axis',(0.,0.,-1.));
#471=DIRECTION('center_axis',(1.,1.45603019622971E-16,0.));
#472=DIRECTION('ref_axis',(0.,0.,-1.));
#473=DIRECTION('center_axis',(-1.,-1.45603019622971E-16,0.));
#474=DIRECTION('ref_axis',(0.,0.,-1.));
#475=DIRECTION('center_axis',(1.,1.45603019622971E-16,0.));
#476=DIRECTION('ref_axis',(0.,0.,-1.));
#477=DIRECTION('center_axis',(1.,0.,0.));
#478=DIRECTION('ref_axis',(0.,0.,-1.));
#479=DIRECTION('center_axis',(0.,0.,1.));
#480=DIRECTION('ref_axis',(1.,0.,0.));
#481=DIRECTION('',(-5.38289951333409E-16,1.,0.));
#482=DIRECTION('',(1.,0.,0.));
#483=DIRECTION('',(0.,-1.,0.));
#484=DIRECTION('',(-1.,5.38289951333409E-16,0.));
#485=DIRECTION('center_axis',(0.,0.,1.));
#486=DIRECTION('ref_axis',(1.,0.,0.));
#487=DIRECTION('',(-1.45603019622971E-16,1.,0.));
#488=DIRECTION('center_axis',(0.,0.,-1.));
#489=DIRECTION('ref_axis',(1.,0.,0.));
#490=DIRECTION('',(-1.,0.,0.));
#491=DIRECTION('center_axis',(0.,0.,1.));
#492=DIRECTION('ref_axis',(1.,0.,0.));
#493=DIRECTION('center_axis',(-1.,0.,0.));
#494=DIRECTION('ref_axis',(0.,0.,1.));
#495=DIRECTION('',(0.,1.,0.));
#496=DIRECTION('',(0.,0.,1.));
#497=DIRECTION('',(0.,0.,-1.));
#498=DIRECTION('center_axis',(5.38289951333409E-16,1.,0.));
#499=DIRECTION('ref_axis',(0.,0.,1.));
#500=DIRECTION('',(1.,-5.38289951333409E-16,0.));
#501=DIRECTION('',(0.,0.,1.));
#502=DIRECTION('center_axis',(0.,0.,1.));
#503=DIRECTION('ref_axis',(1.,0.,0.));
#504=DIRECTION('center_axis',(0.,0.,-1.));
#505=DIRECTION('ref_axis',(1.,0.,0.));
#506=DIRECTION('',(0.,0.,1.));
#507=DIRECTION('center_axis',(1.,1.45603019622971E-16,0.));
#508=DIRECTION('ref_axis',(0.,0.,-1.));
#509=DIRECTION('',(1.45603019622971E-16,-1.,0.));
#510=DIRECTION('',(0.,0.,1.));
#511=DIRECTION('center_axis',(0.,0.,1.));
#512=DIRECTION('ref_axis',(1.,0.,0.));
#513=DIRECTION('center_axis',(0.,0.,1.));
#514=DIRECTION('ref_axis',(1.,0.,0.));
#515=DIRECTION('',(0.,0.,1.));
#516=DIRECTION('center_axis',(0.,1.,0.));
#517=DIRECTION('ref_axis',(0.,0.,1.));
#518=DIRECTION('',(1.,0.,0.));
#519=DIRECTION('',(0.,0.,1.));
#520=DIRECTION('center_axis',(0.,0.,1.));
#521=DIRECTION('ref_axis',(1.,0.,0.));
#522=DIRECTION('center_axis',(0.,0.,-1.));
#523=DIRECTION('ref_axis',(1.,0.,0.));
#524=DIRECTION('',(0.,0.,1.));
#525=DIRECTION('center_axis',(1.,5.38289951333409E-16,0.));
#526=DIRECTION('ref_axis',(0.,0.,-1.));
#527=DIRECTION('',(5.38289951333409E-16,-1.,0.));
#528=DIRECTION('',(0.,0.,1.));
#529=DIRECTION('center_axis',(0.,-1.,0.));
#530=DIRECTION('ref_axis',(0.,0.,-1.));
#531=DIRECTION('',(-1.,0.,0.));
#532=DIRECTION('center_axis',(0.,0.,1.));
#533=DIRECTION('ref_axis',(1.,0.,0.));
#534=CARTESIAN_POINT('',(0.,0.,0.));
#535=CARTESIAN_POINT('Origin',(60.,11.,20.));
#536=CARTESIAN_POINT('',(67.5,11.,20.));
#537=CARTESIAN_POINT('Origin',(60.,11.,20.));
#538=CARTESIAN_POINT('',(55.5,11.,20.));
#539=CARTESIAN_POINT('Origin',(60.,11.,20.));
#540=CARTESIAN_POINT('Origin',(60.,15.5,20.));
#541=CARTESIAN_POINT('',(67.5,20.,20.));
#542=CARTESIAN_POINT('Origin',(60.,20.,20.));
#543=CARTESIAN_POINT('Origin',(60.,-118.56406460551,20.));
#544=CARTESIAN_POINT('',(55.5,0.,20.));
#545=CARTESIAN_POINT('Origin',(60.,0.,20.));
#546=CARTESIAN_POINT('Origin',(60.,11.,-20.));
#547=CARTESIAN_POINT('',(67.5,11.,-20.));
#548=CARTESIAN_POINT('Origin',(60.,11.,-20.));
#549=CARTESIAN_POINT('',(55.5,11.,-20.));
#550=CARTESIAN_POINT('Origin',(60.,11.,-20.));
#551=CARTESIAN_POINT('Origin',(60.,15.5,-20.));
#552=CARTESIAN_POINT('',(67.5,20.,-20.));
#553=CARTESIAN_POINT('Origin',(60.,20.,-20.));
#554=CARTESIAN_POINT('Origin',(60.,-118.56406460551,-20.));
#555=CARTESIAN_POINT('',(55.5,0.,-20.));
#556=CARTESIAN_POINT('Origin',(60.,0.,-20.));
#557=CARTESIAN_POINT('Origin',(11.,60.,20.));
#558=CARTESIAN_POINT('',(11.,60.,12.5));
#559=CARTESIAN_POINT('Origin',(11.,60.,20.));
#560=CARTESIAN_POINT('',(11.,60.,24.5));
#561=CARTESIAN_POINT('Origin',(11.,60.,20.));
#562=CARTESIAN_POINT('Origin',(15.5,60.,20.));
#563=CARTESIAN_POINT('',(20.,60.,12.5));
#564=CARTESIAN_POINT('Origin',(20.,60.,20.));
#565=CARTESIAN_POINT('Origin',(-118.56406460551,60.,20.));
#566=CARTESIAN_POINT('',(0.,60.,24.5));
#567=CARTESIAN_POINT('Origin',(0.,60.,20.));
#568=CARTESIAN_POINT('Origin',(11.,60.,-20.));
#569=CARTESIAN_POINT('',(11.,60.,-27.5));
#570=CARTESIAN_POINT('Origin',(11.,60.,-20.));
#571=CARTESIAN_POINT('',(11.,60.,-15.5));
#572=CARTESIAN_POINT('Origin',(11.,60.,-20.));
#573=CARTESIAN_POINT('Origin',(15.5,60.,-20.));
#574=CARTESIAN_POINT('',(20.,60.,-27.5));
#575=CARTESIAN_POINT('Origin',(20.,60.,-20.));
#576=CARTESIAN_POINT('Origin',(-118.56406460551,60.,-20.));
#577=CARTESIAN_POINT('',(0.,60.,-15.5));
#578=CARTESIAN_POINT('Origin',(0.,60.,-20.));
#579=CARTESIAN_POINT('Origin',(29.0568706928133,29.0568706928133,-40.));
#580=CARTESIAN_POINT('',(80.,0.,-40.));
#581=CARTESIAN_POINT('',(80.,16.5,-40.));
#582=CARTESIAN_POINT('',(80.,0.,-40.));
#583=CARTESIAN_POINT('',(0.,0.,-40.));
#584=CARTESIAN_POINT('',(0.,0.,-40.));
#585=CARTESIAN_POINT('',(0.,80.,-40.));
#586=CARTESIAN_POINT('',(0.,80.,-40.));
#587=CARTESIAN_POINT('',(16.5,80.,-40.));
#588=CARTESIAN_POINT('',(16.5,80.,-40.));
#589=CARTESIAN_POINT('',(20.,76.5,-40.));
#590=CARTESIAN_POINT('Origin',(16.5,76.5,-40.));
#591=CARTESIAN_POINT('',(20.,46.,-40.));
#592=CARTESIAN_POINT('',(20.,46.,-40.));
#593=CARTESIAN_POINT('',(46.,20.,-40.));
#594=CARTESIAN_POINT('Origin',(46.,46.,-40.));
#595=CARTESIAN_POINT('',(76.5,20.,-40.));
#596=CARTESIAN_POINT('',(76.5,20.,-40.));
#597=CARTESIAN_POINT('Origin',(76.5,16.5,-40.));
#598=CARTESIAN_POINT('Origin',(0.,0.,0.));
#599=CARTESIAN_POINT('',(0.,0.,40.));
#600=CARTESIAN_POINT('',(0.,80.,40.));
#601=CARTESIAN_POINT('',(0.,80.,40.));
#602=CARTESIAN_POINT('',(0.,80.,0.));
#603=CARTESIAN_POINT('',(0.,0.,0.));
#604=CARTESIAN_POINT('Origin',(0.,80.,0.));
#605=CARTESIAN_POINT('',(16.5,80.,40.));
#606=CARTESIAN_POINT('',(16.5,80.,40.));
#607=CARTESIAN_POINT('',(16.5,80.,0.));
#608=CARTESIAN_POINT('Origin',(16.5,76.5,0.));
#609=CARTESIAN_POINT('',(20.,76.5,40.));
#610=CARTESIAN_POINT('Origin',(16.5,76.5,40.));
#611=CARTESIAN_POINT('',(20.,76.5,0.));
#612=CARTESIAN_POINT('Origin',(20.,76.5,0.));
#613=CARTESIAN_POINT('',(20.,46.,40.));
#614=CARTESIAN_POINT('',(20.,46.,40.));
#615=CARTESIAN_POINT('',(20.,46.,0.));
#616=CARTESIAN_POINT('Origin',(46.,46.,0.));
#617=CARTESIAN_POINT('',(46.,20.,40.));
#618=CARTESIAN_POINT('Origin',(46.,46.,40.));
#619=CARTESIAN_POINT('',(46.,20.,0.));
#620=CARTESIAN_POINT('Origin',(46.,20.,0.));
#621=CARTESIAN_POINT('',(76.5,20.,40.));
#622=CARTESIAN_POINT('',(76.5,20.,40.));
#623=CARTESIAN_POINT('',(76.5,20.,0.));
#624=CARTESIAN_POINT('Origin',(76.5,16.5,0.));
#625=CARTESIAN_POINT('',(80.,16.5,40.));
#626=CARTESIAN_POINT('Origin',(76.5,16.5,40.));
#627=CARTESIAN_POINT('',(80.,16.5,0.));
#628=CARTESIAN_POINT('Origin',(80.,16.5,0.));
#629=CARTESIAN_POINT('',(80.,0.,40.));
#630=CARTESIAN_POINT('',(80.,0.,40.));
#631=CARTESIAN_POINT('',(80.,0.,0.));
#632=CARTESIAN_POINT('Origin',(80.,0.,0.));
#633=CARTESIAN_POINT('',(0.,0.,40.));
#634=CARTESIAN_POINT('Origin',(29.0568706928133,29.0568706928133,40.));
#635=UNCERTAINTY_MEASURE_WITH_UNIT(LENGTH_MEASURE(0.01),#639,
'DISTANCE_ACCURACY_VALUE',
'Maximum model space distance between geometric entities at asserted c
onnectivities');
#636=UNCERTAINTY_MEASURE_WITH_UNIT(LENGTH_MEASURE(1.E-6),#639,
'DISTANCE_ACCURACY_VALUE',
'Maximum model space distance between geometric entities at asserted c
onnectivities');
#637=(
GEOMETRIC_REPRESENTATION_CONTEXT(3)
GLOBAL_UNCERTAINTY_ASSIGNED_CONTEXT((#635))
GLOBAL_UNIT_ASSIGNED_CONTEXT((#639,#642,#640))
REPRESENTATION_CONTEXT('','3D')
);
#638=(
GEOMETRIC_REPRESENTATION_CONTEXT(3)
GLOBAL_UNCERTAINTY_ASSIGNED_CONTEXT((#636))
GLOBAL_UNIT_ASSIGNED_CONTEXT((#639,#642,#640))
REPRESENTATION_CONTEXT('','3D')
);
#639=(
LENGTH_UNIT()
NAMED_UNIT(*)
SI_UNIT(.MILLI.,.METRE.)
);
#640=(
NAMED_UNIT(*)
SI_UNIT($,.STERADIAN.)
SOLID_ANGLE_UNIT()
);
#641=DIMENSIONAL_EXPONENTS(0.,0.,0.,0.,0.,0.,0.);
#642=(
CONVERSION_BASED_UNIT('degree',#644)
NAMED_UNIT(#641)
PLANE_ANGLE_UNIT()
);
#643=(
NAMED_UNIT(*)
PLANE_ANGLE_UNIT()
SI_UNIT($,.RADIAN.)
);
#644=PLANE_ANGLE_MEASURE_WITH_UNIT(PLANE_ANGLE_MEASURE(0.01745329252),#643);
#645=SHAPE_DEFINITION_REPRESENTATION(#646,#647);
#646=PRODUCT_DEFINITION_SHAPE('',$,#649);
#647=SHAPE_REPRESENTATION('',(#375),#637);
#648=PRODUCT_DEFINITION_CONTEXT('part definition',#653,'design');
#649=PRODUCT_DEFINITION('SZ0985N-A','SZ0985N-A',#650,#648);
#650=PRODUCT_DEFINITION_FORMATION('',$,#655);
#651=PRODUCT_RELATED_PRODUCT_CATEGORY('SZ0985N-A','SZ0985N-A',(#655));
#652=APPLICATION_PROTOCOL_DEFINITION('international standard',
'automotive_design',2009,#653);
#653=APPLICATION_CONTEXT(
'Core Data for Automotive Mechanical Design Process');
#654=PRODUCT_CONTEXT('part definition',#653,'mechanical');
#655=PRODUCT('SZ0985N-A','SZ0985N-A',$,(#654));
#656=PRESENTATION_STYLE_ASSIGNMENT((#657));
#657=SURFACE_STYLE_USAGE(.BOTH.,#658);
#658=SURFACE_SIDE_STYLE($,(#659));
#659=SURFACE_STYLE_FILL_AREA(#660);
#660=FILL_AREA_STYLE($,(#661));
#661=FILL_AREA_STYLE_COLOUR($,#662);
#662=COLOUR_RGB('',0.847058823529412,0.83921568627451,0.83921568627451);
ENDSEC;
END-ISO-10303-21;
