  0
SECTION
  2
HEADER
  9
$ACADVER
  1
AC1014
  9
$ACADMAINTVER
 70
     9
  9
$DWGCODEPAGE
  3
ANSI_1252
  9
$INSBASE
 10
0.0
 20
0.0
 30
0.0
  9
$EXTMIN
 10
-39.570717
 20
-6.718133
 30
0.0
  9
$EXTMAX
 10
39.570706
 20
2.650976
 30
0.0
  9
$LIMMIN
 10
0.0
 20
0.0
  9
$LIMMAX
 10
210.0
 20
297.0
  9
$ORTHOMODE
 70
     1
  9
$REGENMODE
 70
     1
  9
$FILLMODE
 70
     1
  9
$QTEXTMODE
 70
     0
  9
$MIRRTEXT
 70
     1
  9
$DRAGMODE
 70
     2
  9
$LTSCALE
 40
2.5
  9
$OSMODE
 70
     0
  9
$ATTMODE
 70
     1
  9
$TEXTSIZE
 40
3.5
  9
$TRACEWID
 40
1.0
  9
$TEXTSTYLE
  7
STANDARD
  9
$CLAYER
  8
2D_PROFILE
  9
$CELTYPE
  6
BYLAYER
  9
$CECOLOR
 62
   256
  9
$CELTSCALE
 40
1.0
  9
$DELOBJ
 70
     1
  9
$DISPSILH
 70
     0
  9
$DIMSCALE
 40
1.0
  9
$DIMASZ
 40
2.0
  9
$DIMEXO
 40
0.6
  9
$DIMDLI
 40
0.0
  9
$DIMRND
 40
0.0
  9
$DIMDLE
 40
0.0
  9
$DIMEXE
 40
1.0
  9
$DIMTP
 40
0.3
  9
$DIMTM
 40
0.3
  9
$DIMTXT
 40
2.5
  9
$DIMCEN
 40
0.0
  9
$DIMTSZ
 40
0.0
  9
$DIMTOL
 70
     0
  9
$DIMLIM
 70
     0
  9
$DIMTIH
 70
     0
  9
$DIMTOH
 70
     0
  9
$DIMSE1
 70
     0
  9
$DIMSE2
 70
     0
  9
$DIMTAD
 70
     1
  9
$DIMZIN
 70
     8
  9
$DIMBLK
  1

  9
$DIMASO
 70
     1
  9
$DIMSHO
 70
     1
  9
$DIMPOST
  1

  9
$DIMAPOST
  1

  9
$DIMALT
 70
     0
  9
$DIMALTD
 70
     2
  9
$DIMALTF
 40
25.4
  9
$DIMLFAC
 40
1.0
  9
$DIMTOFL
 70
     1
  9
$DIMTVP
 40
0.0
  9
$DIMTIX
 70
     0
  9
$DIMSOXD
 70
     0
  9
$DIMSAH
 70
     0
  9
$DIMBLK1
  1

  9
$DIMBLK2
  1

  9
$DIMSTYLE
  2
PALETTI
  9
$DIMCLRD
 70
   256
  9
$DIMCLRE
 70
   256
  9
$DIMCLRT
 70
   256
  9
$DIMTFAC
 40
0.5
  9
$DIMGAP
 40
0.7
  9
$DIMJUST
 70
     0
  9
$DIMSD1
 70
     0
  9
$DIMSD2
 70
     0
  9
$DIMTOLJ
 70
     1
  9
$DIMTZIN
 70
     8
  9
$DIMALTZ
 70
     8
  9
$DIMALTTZ
 70
     8
  9
$DIMFIT
 70
     5
  9
$DIMUPT
 70
     0
  9
$DIMUNIT
 70
     2
  9
$DIMDEC
 70
     4
  9
$DIMTDEC
 70
     4
  9
$DIMALTU
 70
     2
  9
$DIMALTTD
 70
     2
  9
$DIMTXSTY
  7
STANDARD
  9
$DIMAUNIT
 70
     0
  9
$LUNITS
 70
     2
  9
$LUPREC
 70
     4
  9
$SKETCHINC
 40
1.0
  9
$FILLETRAD
 40
0.0
  9
$AUNITS
 70
     0
  9
$AUPREC
 70
     0
  9
$MENU
  1
acad
  9
$ELEVATION
 40
0.0
  9
$PELEVATION
 40
0.0
  9
$THICKNESS
 40
0.0
  9
$LIMCHECK
 70
     0
  9
$BLIPMODE
 70
     0
  9
$CHAMFERA
 40
10.0
  9
$CHAMFERB
 40
10.0
  9
$CHAMFERC
 40
0.0
  9
$CHAMFERD
 40
0.0
  9
$SKPOLY
 70
     0
  9
$TDCREATE
 40
2451229.677198657
  9
$TDUPDATE
 40
2451229.677198657
  9
$TDINDWG
 40
0.0000000000
  9
$TDUSRTIMER
 40
0.0000000000
  9
$USRTIMER
 70
     1
  9
$ANGBASE
 50
0.0
  9
$ANGDIR
 70
     0
  9
$PDMODE
 70
     0
  9
$PDSIZE
 40
0.0
  9
$PLINEWID
 40
0.0
  9
$COORDS
 70
     1
  9
$SPLFRAME
 70
     0
  9
$SPLINETYPE
 70
     6
  9
$SPLINESEGS
 70
     8
  9
$ATTDIA
 70
     1
  9
$ATTREQ
 70
     1
  9
$HANDLING
 70
     1
  9
$HANDSEED
  5
76
  9
$SURFTAB1
 70
     6
  9
$SURFTAB2
 70
     6
  9
$SURFTYPE
 70
     6
  9
$SURFU
 70
     6
  9
$SURFV
 70
     6
  9
$UCSNAME
  2

  9
$UCSORG
 10
0.0
 20
0.0
 30
0.0
  9
$UCSXDIR
 10
1.0
 20
0.0
 30
0.0
  9
$UCSYDIR
 10
0.0
 20
1.0
 30
0.0
  9
$PUCSNAME
  2

  9
$PUCSORG
 10
0.0
 20
0.0
 30
0.0
  9
$PUCSXDIR
 10
1.0
 20
0.0
 30
0.0
  9
$PUCSYDIR
 10
0.0
 20
1.0
 30
0.0
  9
$USERI1
 70
     0
  9
$USERI2
 70
     0
  9
$USERI3
 70
     0
  9
$USERI4
 70
     0
  9
$USERI5
 70
     0
  9
$USERR1
 40
1.0
  9
$USERR2
 40
0.0
  9
$USERR3
 40
0.0
  9
$USERR4
 40
0.0
  9
$USERR5
 40
0.0
  9
$WORLDVIEW
 70
     1
  9
$SHADEDGE
 70
     3
  9
$SHADEDIF
 70
    70
  9
$TILEMODE
 70
     1
  9
$MAXACTVP
 70
    16
  9
$PINSBASE
 10
0.0
 20
0.0
 30
0.0
  9
$PLIMCHECK
 70
     0
  9
$PEXTMIN
 10
1.000000E+20
 20
1.000000E+20
 30
1.000000E+20
  9
$PEXTMAX
 10
-1.000000E+20
 20
-1.000000E+20
 30
-1.000000E+20
  9
$PLIMMIN
 10
0.0
 20
0.0
  9
$PLIMMAX
 10
420.0
 20
297.0
  9
$UNITMODE
 70
     0
  9
$VISRETAIN
 70
     0
  9
$PLINEGEN
 70
     0
  9
$PSLTSCALE
 70
     1
  9
$TREEDEPTH
 70
  3020
  9
$PICKSTYLE
 70
     1
  9
$CMLSTYLE
  2
STANDARD
  9
$CMLJUST
 70
     0
  9
$CMLSCALE
 40
1.0
  9
$PROXYGRAPHICS
 70
     1
  9
$MEASUREMENT
 70
     0
  0
ENDSEC
  0
SECTION
  2
CLASSES
  0
CLASS
  1
DICTIONARYVAR
  2
AcDbDictionaryVar
  3
"AutoCAD"
 90
        0
280
     0
281
     0
  0
ENDSEC
  0
SECTION
  2
TABLES
  0
TABLE
  2
VPORT
  5
12
100
AcDbSymbolTable
 70
     2
  0
VPORT
  5
75
100
AcDbSymbolTableRecord
100
AcDbViewportTableRecord
  2
*ACTIVE
 70
     0
 10
0.0
 20
0.0
 11
1.0
 21
1.0
 12
8.631897
 22
13.07682
 13
0.0
 23
0.0
 14
5.0
 24
5.0
 15
5.0
 25
5.0
 16
0.0
 26
0.0
 36
1.0
 17
0.0
 27
0.0
 37
0.0
 40
86.680891
 41
1.700368
 42
50.0
 43
0.0
 44
0.0
 50
0.0
 51
0.0
 71
     0
 72
 20000
 73
     1
 74
     3
 75
     0
 76
     0
 77
     0
 78
     1
  0
ENDTAB
  0
TABLE
  2
LTYPE
  5
D
100
AcDbSymbolTable
 70
     1
  0
LTYPE
  5
E
100
AcDbSymbolTableRecord
100
AcDbLinetypeTableRecord
  2
BYBLOCK
 70
     0
  3

 72
    65
 73
     0
 40
0.0
  0
LTYPE
  5
F
100
AcDbSymbolTableRecord
100
AcDbLinetypeTableRecord
  2
BYLAYER
 70
     0
  3

 72
    65
 73
     0
 40
0.0
  0
LTYPE
  5
5
100
AcDbSymbolTableRecord
100
AcDbLinetypeTableRecord
  2
CONTINUOUS
 70
     0
  3
Solid line
 72
    65
 73
     0
 40
0.0
  0
ENDTAB
  0
TABLE
  2
LAYER
  5
A
100
AcDbSymbolTable
 70
     2
  0
LAYER
  5
4
100
AcDbSymbolTableRecord
100
AcDbLayerTableRecord
  2
0
 70
     1
 62
     5
  6
CONTINUOUS
  0
LAYER
  5
1B
100
AcDbSymbolTableRecord
100
AcDbLayerTableRecord
  2
2D_PROFILE
 70
     0
 62
     5
  6
CONTINUOUS
  0
ENDTAB
  0
TABLE
  2
STYLE
  5
B
100
AcDbSymbolTable
 70
     1
  0
STYLE
  5
C
100
AcDbSymbolTableRecord
100
AcDbTextStyleTableRecord
  2
STANDARD
 70
     0
 40
0.0
 41
1.0
 50
0.0
 71
     0
 42
3.5
  3
ISOCP
  4

  0
ENDTAB
  0
TABLE
  2
VIEW
  5
10
100
AcDbSymbolTable
 70
     0
  0
ENDTAB
  0
TABLE
  2
UCS
  5
11
100
AcDbSymbolTable
 70
     0
  0
ENDTAB
  0
TABLE
  2
APPID
  5
14
100
AcDbSymbolTable
 70
     1
  0
APPID
  5
15
100
AcDbSymbolTableRecord
100
AcDbRegAppTableRecord
  2
ACAD
 70
     0
  0
ENDTAB
  0
TABLE
  2
DIMSTYLE
  5
16
100
AcDbSymbolTable
 70
     1
  0
DIMSTYLE
105
1D
100
AcDbSymbolTableRecord
100
AcDbDimStyleTableRecord
  2
PALETTI
 70
     0
  3

  4

  5

  6

  7

 40
1.0
 41
2.0
 42
0.6
 43
0.0
 44
1.0
 45
0.0
 46
0.0
 47
0.3
 48
0.3
140
2.5
141
0.0
142
0.0
143
25.4
144
1.0
145
0.0
146
0.5
147
0.7
 71
     0
 72
     0
 73
     0
 74
     0
 75
     0
 76
     0
 77
     1
 78
     8
170
     0
171
     2
172
     1
173
     0
174
     0
175
     0
176
   256
177
   256
178
   256
270
     2
271
     4
272
     4
273
     2
274
     2
340
C
275
     0
280
     0
281
     0
282
     0
283
     1
284
     8
285
     8
286
     8
287
     5
288
     0
  0
ENDTAB
  0
TABLE
  2
BLOCK_RECORD
  5
1
100
AcDbSymbolTable
 70
     0
  0
BLOCK_RECORD
  5
2
100
AcDbSymbolTableRecord
100
AcDbBlockTableRecord
  2
*MODEL_SPACE
  0
BLOCK_RECORD
  5
7
100
AcDbSymbolTableRecord
100
AcDbBlockTableRecord
  2
*PAPER_SPACE
  0
ENDTAB
  0
ENDSEC
  0
SECTION
  2
BLOCKS
  0
BLOCK
  5
3
100
AcDbEntity
  8
0
100
AcDbBlockBegin
  2
*MODEL_SPACE
 70
     0
 10
0.0
 20
0.0
 30
0.0
  3
*MODEL_SPACE
  1

  0
ENDBLK
  5
6
100
AcDbEntity
  8
0
100
AcDbBlockEnd
  0
BLOCK
  5
8
100
AcDbEntity
 67
     1
  8
0
100
AcDbBlockBegin
  2
*PAPER_SPACE
 70
     0
 10
0.0
 20
0.0
 30
0.0
  3
*PAPER_SPACE
  1

  0
ENDBLK
  5
9
100
AcDbEntity
 67
     1
  8
0
100
AcDbBlockEnd
  0
ENDSEC
  0
SECTION
  2
ENTITIES
  0
LINE
  5
1E
100
AcDbEntity
  8
2D_PROFILE
100
AcDbLine
 10
28.324995
 20
1.635347
 30
0.0
 11
28.124995
 21
2.635347
 31
0.0
1001
ACAD
1000
R13OBJECT
1002
{
1005
74
1002
}
  0
LINE
  5
1F
100
AcDbEntity
  8
2D_PROFILE
100
AcDbLine
 10
31.039944
 20
1.635347
 30
0.0
 11
28.324995
 21
1.635347
 31
0.0
1001
ACAD
1000
R13OBJECT
1002
{
1005
74
1002
}
  0
LINE
  5
20
100
AcDbEntity
  8
2D_PROFILE
100
AcDbLine
 10
31.275465
 20
2.643395
 30
0.0
 11
31.039944
 21
1.635347
 31
0.0
1001
ACAD
1000
R13OBJECT
1002
{
1005
74
1002
}
  0
LINE
  5
21
100
AcDbEntity
  8
2D_PROFILE
100
AcDbLine
 10
36.00985
 20
2.650976
 30
0.0
 11
31.275465
 21
2.643395
 31
0.0
1001
ACAD
1000
R13OBJECT
1002
{
1005
74
1002
}
  0
LINE
  5
22
100
AcDbEntity
  8
2D_PROFILE
100
AcDbLine
 10
37.79549
 20
0.865336
 30
0.0
 11
36.00985
 21
2.650976
 31
0.0
1001
ACAD
1000
R13OBJECT
1002
{
1005
74
1002
}
  0
LINE
  5
23
100
AcDbEntity
  8
2D_PROFILE
100
AcDbLine
 10
38.644018
 20
1.431021
 30
0.0
 11
37.79549
 21
0.865336
 31
0.0
1001
ACAD
1000
R13OBJECT
1002
{
1005
74
1002
}
  0
LINE
  5
24
100
AcDbEntity
  8
2D_PROFILE
100
AcDbLine
 10
39.499995
 20
0.575044
 30
0.0
 11
38.644018
 21
1.431021
 31
0.0
1001
ACAD
1000
R13OBJECT
1002
{
1005
74
1002
}
  0
LINE
  5
25
100
AcDbEntity
  8
2D_PROFILE
100
AcDbLine
 10
39.499995
 20
-1.190704
 30
0.0
 11
39.499995
 21
0.575044
 31
0.0
1001
ACAD
1000
R13OBJECT
1002
{
1005
74
1002
}
  0
ARC
  5
26
100
AcDbEntity
  8
2D_PROFILE
100
AcDbCircle
 10
39.199995
 20
-1.190704
 30
0.0
 40
0.3
100
AcDbArc
 50
224.722246
 51
0.0
1001
ACAD
1000
R13OBJECT
1002
{
1005
74
1002
}
  0
ARC
  5
27
100
AcDbEntity
  8
2D_PROFILE
100
AcDbCircle
 10
36.499995
 20
-3.864653
 30
0.0
 40
3.5
100
AcDbArc
 50
44.722246
 51
90.0
1001
ACAD
1000
R13OBJECT
1002
{
1005
74
1002
}
  0
LINE
  5
28
100
AcDbEntity
  8
2D_PROFILE
100
AcDbLine
 10
36.499995
 20
-0.364653
 30
0.0
 11
22.249995
 21
-0.364653
 31
0.0
1001
ACAD
1000
R13OBJECT
1002
{
1005
74
1002
}
  0
ARC
  5
29
100
AcDbEntity
  8
2D_PROFILE
100
AcDbCircle
 10
22.249995
 20
-0.664653
 30
0.0
 40
0.3
100
AcDbArc
 50
90.0
 51
180.0
1001
ACAD
1000
R13OBJECT
1002
{
1005
74
1002
}
  0
LINE
  5
2A
100
AcDbEntity
  8
2D_PROFILE
100
AcDbLine
 10
21.949995
 20
-0.664653
 30
0.0
 11
21.949995
 21
-4.965495
 31
0.0
1001
ACAD
1000
R13OBJECT
1002
{
1005
74
1002
}
  0
ARC
  5
2B
100
AcDbEntity
  8
2D_PROFILE
100
AcDbCircle
 10
22.499995
 20
-4.965495
 30
0.0
 40
0.55
100
AcDbArc
 50
180.0
 51
354.648846
1001
ACAD
1000
R13OBJECT
1002
{
1005
74
1002
}
  0
LINE
  5
2C
100
AcDbEntity
  8
2D_PROFILE
100
AcDbLine
 10
23.202392
 20
-3.364202
 30
0.0
 11
23.047598
 21
-5.016788
 31
0.0
1001
ACAD
1000
R13OBJECT
1002
{
1005
74
1002
}
  0
ARC
  5
2D
100
AcDbEntity
  8
2D_PROFILE
100
AcDbCircle
 10
23.749995
 20
-3.415495
 30
0.0
 40
0.55
100
AcDbArc
 50
356.392665
 51
174.648846
1001
ACAD
1000
R13OBJECT
1002
{
1005
74
1002
}
  0
LINE
  5
2E
100
AcDbEntity
  8
2D_PROFILE
100
AcDbLine
 10
24.298905
 20
-3.4501
 30
0.0
 11
24.196626
 21
-5.072456
 31
0.0
1001
ACAD
1000
R13OBJECT
1002
{
1005
74
1002
}
  0
ARC
  5
2F
100
AcDbEntity
  8
2D_PROFILE
100
AcDbCircle
 10
22.499995
 20
-4.965495
 30
0.0
 40
1.7
100
AcDbArc
 50
180.0
 51
356.392665
1001
ACAD
1000
R13OBJECT
1002
{
1005
74
1002
}
  0
LINE
  5
30
100
AcDbEntity
  8
2D_PROFILE
100
AcDbLine
 10
20.799995
 20
-4.965495
 30
0.0
 11
20.799995
 21
-0.965495
 31
0.0
1001
ACAD
1000
R13OBJECT
1002
{
1005
74
1002
}
  0
ARC
  5
31
100
AcDbEntity
  8
2D_PROFILE
100
AcDbCircle
 10
19.999995
 20
-0.965495
 30
0.0
 40
0.8
100
AcDbArc
 50
360.0
 51
180.0
1001
ACAD
1000
R13OBJECT
1002
{
1005
74
1002
}
  0
LINE
  5
32
100
AcDbEntity
  8
2D_PROFILE
100
AcDbLine
 10
19.199995
 20
-0.965495
 30
0.0
 11
19.199995
 21
-4.965495
 31
0.0
1001
ACAD
1000
R13OBJECT
1002
{
1005
74
1002
}
  0
ARC
  5
33
100
AcDbEntity
  8
2D_PROFILE
100
AcDbCircle
 10
17.499995
 20
-4.965495
 30
0.0
 40
1.7
100
AcDbArc
 50
183.607335
 51
0.0
1001
ACAD
1000
R13OBJECT
1002
{
1005
74
1002
}
  0
LINE
  5
34
100
AcDbEntity
  8
2D_PROFILE
100
AcDbLine
 10
15.803363
 20
-5.072456
 30
0.0
 11
15.701084
 21
-3.4501
 31
0.0
1001
ACAD
1000
R13OBJECT
1002
{
1005
74
1002
}
  0
ARC
  5
35
100
AcDbEntity
  8
2D_PROFILE
100
AcDbCircle
 10
16.249995
 20
-3.415495
 30
0.0
 40
0.55
100
AcDbArc
 50
5.351154
 51
183.607335
1001
ACAD
1000
R13OBJECT
1002
{
1005
74
1002
}
  0
LINE
  5
36
100
AcDbEntity
  8
2D_PROFILE
100
AcDbLine
 10
16.797598
 20
-3.364202
 30
0.0
 11
16.952392
 21
-5.016788
 31
0.0
1001
ACAD
1000
R13OBJECT
1002
{
1005
74
1002
}
  0
ARC
  5
37
100
AcDbEntity
  8
2D_PROFILE
100
AcDbCircle
 10
17.499995
 20
-4.965495
 30
0.0
 40
0.55
100
AcDbArc
 50
185.351154
 51
360.0
1001
ACAD
1000
R13OBJECT
1002
{
1005
74
1002
}
  0
LINE
  5
38
100
AcDbEntity
  8
2D_PROFILE
100
AcDbLine
 10
18.049995
 20
-4.965495
 30
0.0
 11
18.049995
 21
-0.664653
 31
0.0
1001
ACAD
1000
R13OBJECT
1002
{
1005
74
1002
}
  0
ARC
  5
39
100
AcDbEntity
  8
2D_PROFILE
100
AcDbCircle
 10
17.749995
 20
-0.664653
 30
0.0
 40
0.3
100
AcDbArc
 50
360.0
 51
90.0
1001
ACAD
1000
R13OBJECT
1002
{
1005
74
1002
}
  0
LINE
  5
3A
100
AcDbEntity
  8
2D_PROFILE
100
AcDbLine
 10
17.749995
 20
-0.364653
 30
0.0
 11
9.374995
 21
-0.364653
 31
0.0
1001
ACAD
1000
R13OBJECT
1002
{
1005
74
1002
}
  0
LINE
  5
3B
100
AcDbEntity
  8
2D_PROFILE
100
AcDbLine
 10
9.374995
 20
-0.364653
 30
0.0
 11
-17.750005
 21
-0.364653
 31
0.0
1001
ACAD
1000
R13OBJECT
1002
{
1005
74
1002
}
  0
ARC
  5
3C
100
AcDbEntity
  8
2D_PROFILE
100
AcDbCircle
 10
-17.750005
 20
-0.664653
 30
0.0
 40
0.3
100
AcDbArc
 50
90.0
 51
180.0
1001
ACAD
1000
R13OBJECT
1002
{
1005
74
1002
}
  0
LINE
  5
3D
100
AcDbEntity
  8
2D_PROFILE
100
AcDbLine
 10
-18.050005
 20
-0.664653
 30
0.0
 11
-18.050005
 21
-4.965495
 31
0.0
1001
ACAD
1000
R13OBJECT
1002
{
1005
74
1002
}
  0
ARC
  5
3E
100
AcDbEntity
  8
2D_PROFILE
100
AcDbCircle
 10
-17.500005
 20
-4.965495
 30
0.0
 40
0.55
100
AcDbArc
 50
180.0
 51
354.648846
1001
ACAD
1000
R13OBJECT
1002
{
1005
74
1002
}
  0
LINE
  5
3F
100
AcDbEntity
  8
2D_PROFILE
100
AcDbLine
 10
-16.797608
 20
-3.364202
 30
0.0
 11
-16.952402
 21
-5.016788
 31
0.0
1001
ACAD
1000
R13OBJECT
1002
{
1005
74
1002
}
  0
ARC
  5
40
100
AcDbEntity
  8
2D_PROFILE
100
AcDbCircle
 10
-16.250005
 20
-3.415495
 30
0.0
 40
0.55
100
AcDbArc
 50
356.392665
 51
174.648846
1001
ACAD
1000
R13OBJECT
1002
{
1005
74
1002
}
  0
LINE
  5
41
100
AcDbEntity
  8
2D_PROFILE
100
AcDbLine
 10
-15.701095
 20
-3.4501
 30
0.0
 11
-15.803374
 21
-5.072456
 31
0.0
1001
ACAD
1000
R13OBJECT
1002
{
1005
74
1002
}
  0
ARC
  5
42
100
AcDbEntity
  8
2D_PROFILE
100
AcDbCircle
 10
-17.500005
 20
-4.965495
 30
0.0
 40
1.7
100
AcDbArc
 50
180.0
 51
356.392665
1001
ACAD
1000
R13OBJECT
1002
{
1005
74
1002
}
  0
LINE
  5
43
100
AcDbEntity
  8
2D_PROFILE
100
AcDbLine
 10
-19.200005
 20
-4.965495
 30
0.0
 11
-19.200005
 21
-0.965495
 31
0.0
1001
ACAD
1000
R13OBJECT
1002
{
1005
74
1002
}
  0
ARC
  5
44
100
AcDbEntity
  8
2D_PROFILE
100
AcDbCircle
 10
-20.000005
 20
-0.965495
 30
0.0
 40
0.8
100
AcDbArc
 50
360.0
 51
180.0
1001
ACAD
1000
R13OBJECT
1002
{
1005
74
1002
}
  0
LINE
  5
45
100
AcDbEntity
  8
2D_PROFILE
100
AcDbLine
 10
-20.800005
 20
-0.965495
 30
0.0
 11
-20.800005
 21
-4.965495
 31
0.0
1001
ACAD
1000
R13OBJECT
1002
{
1005
74
1002
}
  0
ARC
  5
46
100
AcDbEntity
  8
2D_PROFILE
100
AcDbCircle
 10
-22.500005
 20
-4.965495
 30
0.0
 40
1.7
100
AcDbArc
 50
183.607335
 51
0.0
1001
ACAD
1000
R13OBJECT
1002
{
1005
74
1002
}
  0
LINE
  5
47
100
AcDbEntity
  8
2D_PROFILE
100
AcDbLine
 10
-24.196637
 20
-5.072456
 30
0.0
 11
-24.298916
 21
-3.4501
 31
0.0
1001
ACAD
1000
R13OBJECT
1002
{
1005
74
1002
}
  0
ARC
  5
48
100
AcDbEntity
  8
2D_PROFILE
100
AcDbCircle
 10
-23.750005
 20
-3.415495
 30
0.0
 40
0.55
100
AcDbArc
 50
5.351154
 51
183.607335
1001
ACAD
1000
R13OBJECT
1002
{
1005
74
1002
}
  0
LINE
  5
49
100
AcDbEntity
  8
2D_PROFILE
100
AcDbLine
 10
-23.202402
 20
-3.364202
 30
0.0
 11
-23.047608
 21
-5.016788
 31
0.0
1001
ACAD
1000
R13OBJECT
1002
{
1005
74
1002
}
  0
ARC
  5
4A
100
AcDbEntity
  8
2D_PROFILE
100
AcDbCircle
 10
-22.500005
 20
-4.965495
 30
0.0
 40
0.55
100
AcDbArc
 50
185.351154
 51
0.0
1001
ACAD
1000
R13OBJECT
1002
{
1005
74
1002
}
  0
LINE
  5
4B
100
AcDbEntity
  8
2D_PROFILE
100
AcDbLine
 10
-21.950005
 20
-4.965495
 30
0.0
 11
-21.950005
 21
-0.664653
 31
0.0
1001
ACAD
1000
R13OBJECT
1002
{
1005
74
1002
}
  0
ARC
  5
4C
100
AcDbEntity
  8
2D_PROFILE
100
AcDbCircle
 10
-22.250005
 20
-0.664653
 30
0.0
 40
0.3
100
AcDbArc
 50
360.0
 51
90.0
1001
ACAD
1000
R13OBJECT
1002
{
1005
74
1002
}
  0
LINE
  5
4D
100
AcDbEntity
  8
2D_PROFILE
100
AcDbLine
 10
-22.250005
 20
-0.364653
 30
0.0
 11
-36.500005
 21
-0.364653
 31
0.0
1001
ACAD
1000
R13OBJECT
1002
{
1005
74
1002
}
  0
ARC
  5
4E
100
AcDbEntity
  8
2D_PROFILE
100
AcDbCircle
 10
-36.500005
 20
-3.864653
 30
0.0
 40
3.5
100
AcDbArc
 50
90.0
 51
135.277754
1001
ACAD
1000
R13OBJECT
1002
{
1005
74
1002
}
  0
ARC
  5
4F
100
AcDbEntity
  8
2D_PROFILE
100
AcDbCircle
 10
-39.200005
 20
-1.190704
 30
0.0
 40
0.3
100
AcDbArc
 50
180.0
 51
315.277754
1001
ACAD
1000
R13OBJECT
1002
{
1005
74
1002
}
  0
LINE
  5
50
100
AcDbEntity
  8
2D_PROFILE
100
AcDbLine
 10
-39.500005
 20
0.575044
 30
0.0
 11
-39.500005
 21
-1.190704
 31
0.0
1001
ACAD
1000
R13OBJECT
1002
{
1005
74
1002
}
  0
LINE
  5
51
100
AcDbEntity
  8
2D_PROFILE
100
AcDbLine
 10
-38.644029
 20
1.431021
 30
0.0
 11
-39.500005
 21
0.575044
 31
0.0
1001
ACAD
1000
R13OBJECT
1002
{
1005
74
1002
}
  0
LINE
  5
52
100
AcDbEntity
  8
2D_PROFILE
100
AcDbLine
 10
-37.795501
 20
0.865336
 30
0.0
 11
-38.644029
 21
1.431021
 31
0.0
1001
ACAD
1000
R13OBJECT
1002
{
1005
74
1002
}
  0
LINE
  5
53
100
AcDbEntity
  8
2D_PROFILE
100
AcDbLine
 10
-36.009861
 20
2.650976
 30
0.0
 11
-37.795501
 21
0.865336
 31
0.0
1001
ACAD
1000
R13OBJECT
1002
{
1005
74
1002
}
  0
LINE
  5
54
100
AcDbEntity
  8
2D_PROFILE
100
AcDbLine
 10
-31.275476
 20
2.643395
 30
0.0
 11
-36.009861
 21
2.650976
 31
0.0
1001
ACAD
1000
R13OBJECT
1002
{
1005
74
1002
}
  0
LINE
  5
55
100
AcDbEntity
  8
2D_PROFILE
100
AcDbLine
 10
-31.039955
 20
1.635347
 30
0.0
 11
-31.275476
 21
2.643395
 31
0.0
1001
ACAD
1000
R13OBJECT
1002
{
1005
74
1002
}
  0
LINE
  5
56
100
AcDbEntity
  8
2D_PROFILE
100
AcDbLine
 10
-28.325005
 20
1.635347
 30
0.0
 11
-31.039955
 21
1.635347
 31
0.0
1001
ACAD
1000
R13OBJECT
1002
{
1005
74
1002
}
  0
LINE
  5
57
100
AcDbEntity
  8
2D_PROFILE
100
AcDbLine
 10
-28.125005
 20
2.635347
 30
0.0
 11
-28.325005
 21
1.635347
 31
0.0
1001
ACAD
1000
R13OBJECT
1002
{
1005
74
1002
}
  0
LINE
  5
58
100
AcDbEntity
  8
2D_PROFILE
100
AcDbLine
 10
-24.375005
 20
2.635347
 30
0.0
 11
-28.125005
 21
2.635347
 31
0.0
1001
ACAD
1000
R13OBJECT
1002
{
1005
74
1002
}
  0
LINE
  5
59
100
AcDbEntity
  8
2D_PROFILE
100
AcDbLine
 10
-24.175005
 20
1.635347
 30
0.0
 11
-24.375005
 21
2.635347
 31
0.0
1001
ACAD
1000
R13OBJECT
1002
{
1005
74
1002
}
  0
LINE
  5
5A
100
AcDbEntity
  8
2D_PROFILE
100
AcDbLine
 10
-20.825005
 20
1.635347
 30
0.0
 11
-24.175005
 21
1.635347
 31
0.0
1001
ACAD
1000
R13OBJECT
1002
{
1005
74
1002
}
  0
LINE
  5
5B
100
AcDbEntity
  8
2D_PROFILE
100
AcDbLine
 10
-20.625005
 20
2.635347
 30
0.0
 11
-20.825005
 21
1.635347
 31
0.0
1001
ACAD
1000
R13OBJECT
1002
{
1005
74
1002
}
  0
LINE
  5
5C
100
AcDbEntity
  8
2D_PROFILE
100
AcDbLine
 10
-16.875005
 20
2.635347
 30
0.0
 11
-20.625005
 21
2.635347
 31
0.0
1001
ACAD
1000
R13OBJECT
1002
{
1005
74
1002
}
  0
LINE
  5
5D
100
AcDbEntity
  8
2D_PROFILE
100
AcDbLine
 10
-16.675005
 20
1.635347
 30
0.0
 11
-16.875005
 21
2.635347
 31
0.0
1001
ACAD
1000
R13OBJECT
1002
{
1005
74
1002
}
  0
LINE
  5
5E
100
AcDbEntity
  8
2D_PROFILE
100
AcDbLine
 10
-13.325005
 20
1.635347
 30
0.0
 11
-16.675005
 21
1.635347
 31
0.0
1001
ACAD
1000
R13OBJECT
1002
{
1005
74
1002
}
  0
LINE
  5
5F
100
AcDbEntity
  8
2D_PROFILE
100
AcDbLine
 10
-13.125005
 20
2.635347
 30
0.0
 11
-13.325005
 21
1.635347
 31
0.0
1001
ACAD
1000
R13OBJECT
1002
{
1005
74
1002
}
  0
LINE
  5
60
100
AcDbEntity
  8
2D_PROFILE
100
AcDbLine
 10
-9.375005
 20
2.635347
 30
0.0
 11
-13.125005
 21
2.635347
 31
0.0
1001
ACAD
1000
R13OBJECT
1002
{
1005
74
1002
}
  0
LINE
  5
61
100
AcDbEntity
  8
2D_PROFILE
100
AcDbLine
 10
-9.175005
 20
1.635347
 30
0.0
 11
-9.375005
 21
2.635347
 31
0.0
1001
ACAD
1000
R13OBJECT
1002
{
1005
74
1002
}
  0
LINE
  5
62
100
AcDbEntity
  8
2D_PROFILE
100
AcDbLine
 10
-5.825005
 20
1.635347
 30
0.0
 11
-9.175005
 21
1.635347
 31
0.0
1001
ACAD
1000
R13OBJECT
1002
{
1005
74
1002
}
  0
LINE
  5
63
100
AcDbEntity
  8
2D_PROFILE
100
AcDbLine
 10
-5.625005
 20
2.635347
 30
0.0
 11
-5.825005
 21
1.635347
 31
0.0
1001
ACAD
1000
R13OBJECT
1002
{
1005
74
1002
}
  0
LINE
  5
64
100
AcDbEntity
  8
2D_PROFILE
100
AcDbLine
 10
-1.875005
 20
2.635347
 30
0.0
 11
-5.625005
 21
2.635347
 31
0.0
1001
ACAD
1000
R13OBJECT
1002
{
1005
74
1002
}
  0
LINE
  5
65
100
AcDbEntity
  8
2D_PROFILE
100
AcDbLine
 10
-1.675005
 20
1.635347
 30
0.0
 11
-1.875005
 21
2.635347
 31
0.0
1001
ACAD
1000
R13OBJECT
1002
{
1005
74
1002
}
  0
LINE
  5
66
100
AcDbEntity
  8
2D_PROFILE
100
AcDbLine
 10
1.674995
 20
1.635347
 30
0.0
 11
-1.675005
 21
1.635347
 31
0.0
1001
ACAD
1000
R13OBJECT
1002
{
1005
74
1002
}
  0
LINE
  5
67
100
AcDbEntity
  8
2D_PROFILE
100
AcDbLine
 10
1.874995
 20
2.635347
 30
0.0
 11
1.674995
 21
1.635347
 31
0.0
1001
ACAD
1000
R13OBJECT
1002
{
1005
74
1002
}
  0
LINE
  5
68
100
AcDbEntity
  8
2D_PROFILE
100
AcDbLine
 10
5.624995
 20
2.635347
 30
0.0
 11
1.874995
 21
2.635347
 31
0.0
1001
ACAD
1000
R13OBJECT
1002
{
1005
74
1002
}
  0
LINE
  5
69
100
AcDbEntity
  8
2D_PROFILE
100
AcDbLine
 10
5.824995
 20
1.635347
 30
0.0
 11
5.624995
 21
2.635347
 31
0.0
1001
ACAD
1000
R13OBJECT
1002
{
1005
74
1002
}
  0
LINE
  5
6A
100
AcDbEntity
  8
2D_PROFILE
100
AcDbLine
 10
9.174995
 20
1.635347
 30
0.0
 11
5.824995
 21
1.635347
 31
0.0
1001
ACAD
1000
R13OBJECT
1002
{
1005
74
1002
}
  0
LINE
  5
6B
100
AcDbEntity
  8
2D_PROFILE
100
AcDbLine
 10
9.374995
 20
2.635347
 30
0.0
 11
9.174995
 21
1.635347
 31
0.0
1001
ACAD
1000
R13OBJECT
1002
{
1005
74
1002
}
  0
LINE
  5
6C
100
AcDbEntity
  8
2D_PROFILE
100
AcDbLine
 10
13.124995
 20
2.635347
 30
0.0
 11
9.374995
 21
2.635347
 31
0.0
1001
ACAD
1000
R13OBJECT
1002
{
1005
74
1002
}
  0
LINE
  5
6D
100
AcDbEntity
  8
2D_PROFILE
100
AcDbLine
 10
13.324995
 20
1.635347
 30
0.0
 11
13.124995
 21
2.635347
 31
0.0
1001
ACAD
1000
R13OBJECT
1002
{
1005
74
1002
}
  0
LINE
  5
6E
100
AcDbEntity
  8
2D_PROFILE
100
AcDbLine
 10
16.674995
 20
1.635347
 30
0.0
 11
13.324995
 21
1.635347
 31
0.0
1001
ACAD
1000
R13OBJECT
1002
{
1005
74
1002
}
  0
LINE
  5
6F
100
AcDbEntity
  8
2D_PROFILE
100
AcDbLine
 10
16.874995
 20
2.635347
 30
0.0
 11
16.674995
 21
1.635347
 31
0.0
1001
ACAD
1000
R13OBJECT
1002
{
1005
74
1002
}
  0
LINE
  5
70
100
AcDbEntity
  8
2D_PROFILE
100
AcDbLine
 10
20.624995
 20
2.635347
 30
0.0
 11
16.874995
 21
2.635347
 31
0.0
1001
ACAD
1000
R13OBJECT
1002
{
1005
74
1002
}
  0
LINE
  5
71
100
AcDbEntity
  8
2D_PROFILE
100
AcDbLine
 10
20.824995
 20
1.635347
 30
0.0
 11
20.624995
 21
2.635347
 31
0.0
1001
ACAD
1000
R13OBJECT
1002
{
1005
74
1002
}
  0
LINE
  5
72
100
AcDbEntity
  8
2D_PROFILE
100
AcDbLine
 10
24.174995
 20
1.635347
 30
0.0
 11
20.824995
 21
1.635347
 31
0.0
1001
ACAD
1000
R13OBJECT
1002
{
1005
74
1002
}
  0
LINE
  5
73
100
AcDbEntity
  8
2D_PROFILE
100
AcDbLine
 10
24.374995
 20
2.635347
 30
0.0
 11
24.174995
 21
1.635347
 31
0.0
1001
ACAD
1000
R13OBJECT
1002
{
1005
74
1002
}
  0
LINE
  5
74
100
AcDbEntity
  8
2D_PROFILE
100
AcDbLine
 10
28.124995
 20
2.635347
 30
0.0
 11
24.374995
 21
2.635347
 31
0.0
  0
ENDSEC
  0
SECTION
  2
OBJECTS
  0
DICTIONARY
  5
1A
100
AcDbDictionary
  3
ACAD_GROUP
350
18
  3
ACAD_MLINESTYLE
350
19
  0
DICTIONARY
  5
18
102
{ACAD_REACTORS
330
1A
102
}
100
AcDbDictionary
  0
DICTIONARY
  5
19
102
{ACAD_REACTORS
330
1A
102
}
100
AcDbDictionary
  3
STANDARD
350
1C
  0
MLINESTYLE
  5
1C
102
{ACAD_REACTORS
330
19
102
}
100
AcDbMlineStyle
  2
STANDARD
 70
     0
  3

 62
   256
 51
90.0
 52
90.0
 71
     2
 49
0.5
 62
   256
  6
BYLAYER
 49
-0.5
 62
   256
  6
BYLAYER
  0
ENDSEC
  0
EOF
