ISO-10303-21;
HEADER;
/* Generated by software containing ST-Developer
 * from STEP Tools, Inc. (www.steptools.com) 
 */

FILE_DESCRIPTION(
/* description */ ('Zuganker G 25 M6 38 mm'),
/* implementation_level */ '2;1');

FILE_NAME(
/* name */ 'Q:\\ExterneArtikel_Webseite_Palkat\\SV\\SV_step\\SV7108V_A.
stp',
/* time_stamp */ '2015-11-27T09:32:25+01:00',
/* author */ ('Marina Kaa'),
/* organization */ (''),
/* preprocessor_version */ 'ST-DEVELOPER v15.6',
/* originating_system */ 'Autodesk Inventor 2015',
/* authorisation */ '');

FILE_SCHEMA (('AUTOMOTIVE_DESIGN { 1 0 10303 214 3 1 1 }'));
ENDSEC;

DATA;
#10=MECHANICAL_DESIGN_GEOMETRIC_PRESENTATION_REPRESENTATION('',(#13),#176);
#11=SHAPE_REPRESENTATION_RELATIONSHIP('SRR','None',#185,#12);
#12=ADVANCED_BREP_SHAPE_REPRESENTATION($,(#14),#175);
#13=STYLED_ITEM('',(#194),#14);
#14=MANIFOLD_SOLID_BREP('Volumenk\X\F6rper1',#77);
#15=PLANE('',#84);
#16=PLANE('',#87);
#17=B_SPLINE_CURVE_WITH_KNOTS('',3,(#122,#123,#124,#125,#126,#127,#128,
#129,#130,#131,#132,#133,#134,#135,#136,#137,#138,#139,#140,#141,#142,#143),
 .UNSPECIFIED.,.F.,.F.,(4,2,2,2,2,2,2,2,2,2,4),(0.39551667188961,0.443345221252031,
0.491173770614452,0.600111415826062,0.695572379802641,0.79103334377922,
0.877736510604858,0.964439677430495,1.08221351838488,1.13428424896629,1.1863549795477),
 .UNSPECIFIED.);
#18=B_SPLINE_CURVE_WITH_KNOTS('',3,(#144,#145,#146,#147,#148,#149,#150,
#151,#152,#153,#154,#155,#156,#157,#158,#159,#160,#161,#162,#163,#164,#165,
#166),.UNSPECIFIED.,.F.,.F.,(4,2,2,2,2,3,2,2,2,2,4),(1.1863549795477,1.23842571012911,
1.29049644071053,1.40827028166491,1.49497344849055,1.58167661531619,1.67713757929276,
1.77259854326934,1.88153618848095,1.92936473784337,1.9771932872058),
 .UNSPECIFIED.);
#19=CYLINDRICAL_SURFACE('',#82,3.);
#20=FACE_BOUND('',#31,.T.);
#21=FACE_BOUND('',#33,.T.);
#22=FACE_BOUND('',#34,.T.);
#23=FACE_BOUND('',#37,.T.);
#24=FACE_OUTER_BOUND('',#30,.T.);
#25=FACE_OUTER_BOUND('',#32,.T.);
#26=FACE_OUTER_BOUND('',#35,.T.);
#27=FACE_OUTER_BOUND('',#36,.T.);
#28=FACE_OUTER_BOUND('',#38,.T.);
#29=FACE_OUTER_BOUND('',#39,.T.);
#30=EDGE_LOOP('',(#56));
#31=EDGE_LOOP('',(#57));
#32=EDGE_LOOP('',(#58));
#33=EDGE_LOOP('',(#59,#60));
#34=EDGE_LOOP('',(#61));
#35=EDGE_LOOP('',(#62));
#36=EDGE_LOOP('',(#63));
#37=EDGE_LOOP('',(#64));
#38=EDGE_LOOP('',(#65));
#39=EDGE_LOOP('',(#66,#67));
#40=CIRCLE('',#80,3.);
#41=CIRCLE('',#81,2.);
#42=CIRCLE('',#83,3.);
#43=CIRCLE('',#86,2.);
#44=VERTEX_POINT('',#113);
#45=VERTEX_POINT('',#115);
#46=VERTEX_POINT('',#118);
#47=VERTEX_POINT('',#120);
#48=VERTEX_POINT('',#121);
#49=VERTEX_POINT('',#169);
#50=EDGE_CURVE('',#44,#44,#40,.T.);
#51=EDGE_CURVE('',#45,#45,#41,.T.);
#52=EDGE_CURVE('',#46,#46,#42,.T.);
#53=EDGE_CURVE('',#47,#48,#17,.T.);
#54=EDGE_CURVE('',#48,#47,#18,.T.);
#55=EDGE_CURVE('',#49,#49,#43,.T.);
#56=ORIENTED_EDGE('',*,*,#50,.T.);
#57=ORIENTED_EDGE('',*,*,#51,.T.);
#58=ORIENTED_EDGE('',*,*,#52,.F.);
#59=ORIENTED_EDGE('',*,*,#53,.T.);
#60=ORIENTED_EDGE('',*,*,#54,.T.);
#61=ORIENTED_EDGE('',*,*,#50,.F.);
#62=ORIENTED_EDGE('',*,*,#51,.F.);
#63=ORIENTED_EDGE('',*,*,#55,.T.);
#64=ORIENTED_EDGE('',*,*,#52,.T.);
#65=ORIENTED_EDGE('',*,*,#55,.F.);
#66=ORIENTED_EDGE('',*,*,#53,.F.);
#67=ORIENTED_EDGE('',*,*,#54,.F.);
#68=CONICAL_SURFACE('',#79,2.5,45.);
#69=CONICAL_SURFACE('',#85,2.5,45.0000000000001);
#70=CONICAL_SURFACE('',#88,1.5,45.);
#71=ADVANCED_FACE('',(#24,#20),#68,.T.);
#72=ADVANCED_FACE('',(#25,#21,#22),#19,.T.);
#73=ADVANCED_FACE('',(#26),#15,.T.);
#74=ADVANCED_FACE('',(#27,#23),#69,.T.);
#75=ADVANCED_FACE('',(#28),#16,.T.);
#76=ADVANCED_FACE('',(#29),#70,.F.);
#77=CLOSED_SHELL('',(#71,#72,#73,#74,#75,#76));
#78=AXIS2_PLACEMENT_3D('placement',#111,#89,#90);
#79=AXIS2_PLACEMENT_3D('',#112,#91,#92);
#80=AXIS2_PLACEMENT_3D('',#114,#93,#94);
#81=AXIS2_PLACEMENT_3D('',#116,#95,#96);
#82=AXIS2_PLACEMENT_3D('',#117,#97,#98);
#83=AXIS2_PLACEMENT_3D('',#119,#99,#100);
#84=AXIS2_PLACEMENT_3D('',#167,#101,#102);
#85=AXIS2_PLACEMENT_3D('',#168,#103,#104);
#86=AXIS2_PLACEMENT_3D('',#170,#105,#106);
#87=AXIS2_PLACEMENT_3D('',#171,#107,#108);
#88=AXIS2_PLACEMENT_3D('',#172,#109,#110);
#89=DIRECTION('axis',(0.,0.,1.));
#90=DIRECTION('refdir',(1.,0.,0.));
#91=DIRECTION('center_axis',(0.,0.,1.));
#92=DIRECTION('ref_axis',(0.,-1.,0.));
#93=DIRECTION('center_axis',(0.,0.,-1.));
#94=DIRECTION('ref_axis',(0.,-1.,0.));
#95=DIRECTION('center_axis',(0.,0.,1.));
#96=DIRECTION('ref_axis',(0.,-1.,0.));
#97=DIRECTION('center_axis',(0.,0.,-1.));
#98=DIRECTION('ref_axis',(0.,1.,0.));
#99=DIRECTION('center_axis',(0.,0.,1.));
#100=DIRECTION('ref_axis',(0.,-1.,0.));
#101=DIRECTION('center_axis',(0.,0.,-1.));
#102=DIRECTION('ref_axis',(-1.,0.,0.));
#103=DIRECTION('center_axis',(0.,0.,-1.));
#104=DIRECTION('ref_axis',(0.,-1.,0.));
#105=DIRECTION('center_axis',(0.,0.,-1.));
#106=DIRECTION('ref_axis',(0.,-1.,0.));
#107=DIRECTION('center_axis',(0.,0.,1.));
#108=DIRECTION('ref_axis',(1.,0.,0.));
#109=DIRECTION('center_axis',(1.,0.,0.));
#110=DIRECTION('ref_axis',(0.,0.,1.));
#111=CARTESIAN_POINT('',(0.,0.,0.));
#112=CARTESIAN_POINT('Origin',(0.,0.,-37.5));
#113=CARTESIAN_POINT('',(3.67381906146713E-16,3.,-37.));
#114=CARTESIAN_POINT('Origin',(0.,0.,-37.));
#115=CARTESIAN_POINT('',(-2.44921270764476E-16,2.,-38.));
#116=CARTESIAN_POINT('Origin',(0.,0.,-38.));
#117=CARTESIAN_POINT('Origin',(0.,0.,-30.5));
#118=CARTESIAN_POINT('',(-3.67381906146713E-16,3.,-1.));
#119=CARTESIAN_POINT('Origin',(0.,0.,-1.));
#120=CARTESIAN_POINT('',(3.,0.,-10.));
#121=CARTESIAN_POINT('',(3.,0.,-4.));
#122=CARTESIAN_POINT('Ctrl Pts',(3.,6.93889390390723E-17,-10.));
#123=CARTESIAN_POINT('Ctrl Pts',(3.,-0.159428497874737,-10.));
#124=CARTESIAN_POINT('Ctrl Pts',(2.98623938040196,-0.329790567800089,-9.97266527883904));
#125=CARTESIAN_POINT('Ctrl Pts',(2.93316949059378,-0.650310762663814,-9.8650399864211));
#126=CARTESIAN_POINT('Ctrl Pts',(2.89425039099578,-0.800698945854498,-9.7852432047771));
#127=CARTESIAN_POINT('Ctrl Pts',(2.75902396358048,-1.21661442761566,-9.49925231440914));
#128=CARTESIAN_POINT('Ctrl Pts',(2.61725884820991,-1.4805028021205,-9.18279671472228));
#129=CARTESIAN_POINT('Ctrl Pts',(2.40575364902669,-1.80126306305298,-8.6201358937286));
#130=CARTESIAN_POINT('Ctrl Pts',(2.30465232268267,-1.92357344740932,-8.31086904978387));
#131=CARTESIAN_POINT('Ctrl Pts',(2.16105766868437,-2.08359940548936,-7.66020463073143));
#132=CARTESIAN_POINT('Ctrl Pts',(2.12132034355964,-2.12132034355964,-7.31820321325527));
#133=CARTESIAN_POINT('Ctrl Pts',(2.12132034355964,-2.12132034355964,-6.71098944391454));
#134=CARTESIAN_POINT('Ctrl Pts',(2.15396424698002,-2.09010818059243,-6.39902975545392));
#135=CARTESIAN_POINT('Ctrl Pts',(2.27548789245943,-1.95710737388662,-5.80094454717763));
#136=CARTESIAN_POINT('Ctrl Pts',(2.36234978142069,-1.85528532275239,-5.51441822279813));
#137=CARTESIAN_POINT('Ctrl Pts',(2.56785690659066,-1.5646543591727,-4.93315629563877));
#138=CARTESIAN_POINT('Ctrl Pts',(2.7237824684424,-1.29752891780373,-4.57782256582265));
#139=CARTESIAN_POINT('Ctrl Pts',(2.87703073736304,-0.861826183532053,-4.25040494144009));
#140=CARTESIAN_POINT('Ctrl Pts',(2.92195101490218,-0.701950280704189,-4.15788319096968));
#141=CARTESIAN_POINT('Ctrl Pts',(2.98368627288975,-0.357978124916647,-4.03237468481201));
#142=CARTESIAN_POINT('Ctrl Pts',(3.,-0.173569101938038,-4.));
#143=CARTESIAN_POINT('Ctrl Pts',(3.,0.,-4.));
#144=CARTESIAN_POINT('Ctrl Pts',(3.,0.,-4.));
#145=CARTESIAN_POINT('Ctrl Pts',(3.,0.173569101938039,-4.));
#146=CARTESIAN_POINT('Ctrl Pts',(2.98368627288975,0.357978124916647,-4.03237468481201));
#147=CARTESIAN_POINT('Ctrl Pts',(2.92195101490218,0.70195028070419,-4.15788319096968));
#148=CARTESIAN_POINT('Ctrl Pts',(2.87703073736304,0.861826183532054,-4.25040494144009));
#149=CARTESIAN_POINT('Ctrl Pts',(2.7237824684424,1.29752891780373,-4.57782256582265));
#150=CARTESIAN_POINT('Ctrl Pts',(2.56785690659066,1.5646543591727,-4.93315629563876));
#151=CARTESIAN_POINT('Ctrl Pts',(2.36234978142069,1.85528532275239,-5.51441822279813));
#152=CARTESIAN_POINT('Ctrl Pts',(2.27548789245943,1.95710737388662,-5.80094454717763));
#153=CARTESIAN_POINT('Ctrl Pts',(2.15396424698002,2.09010818059243,-6.39902975545391));
#154=CARTESIAN_POINT('Ctrl Pts',(2.12132034355964,2.12132034355964,-6.71098944391454));
#155=CARTESIAN_POINT('Ctrl Pts',(2.12132034355964,2.12132034355964,-7.));
#156=CARTESIAN_POINT('Ctrl Pts',(2.12132034355964,2.12132034355964,-7.31820321325527));
#157=CARTESIAN_POINT('Ctrl Pts',(2.16105766868437,2.08359940548936,-7.66020463073143));
#158=CARTESIAN_POINT('Ctrl Pts',(2.30465232268267,1.92357344740932,-8.31086904978387));
#159=CARTESIAN_POINT('Ctrl Pts',(2.40575364902669,1.80126306305298,-8.62013589372859));
#160=CARTESIAN_POINT('Ctrl Pts',(2.61725884820991,1.4805028021205,-9.18279671472228));
#161=CARTESIAN_POINT('Ctrl Pts',(2.75902396358048,1.21661442761567,-9.49925231440914));
#162=CARTESIAN_POINT('Ctrl Pts',(2.89425039099578,0.800698945854499,-9.7852432047771));
#163=CARTESIAN_POINT('Ctrl Pts',(2.93316949059378,0.650310762663813,-9.8650399864211));
#164=CARTESIAN_POINT('Ctrl Pts',(2.98623938040196,0.329790567800088,-9.97266527883904));
#165=CARTESIAN_POINT('Ctrl Pts',(3.,0.159428497874736,-10.));
#166=CARTESIAN_POINT('Ctrl Pts',(3.,-3.46944695195361E-17,-10.));
#167=CARTESIAN_POINT('Origin',(0.,1.5,-38.));
#168=CARTESIAN_POINT('Origin',(0.,0.,-0.5));
#169=CARTESIAN_POINT('',(2.44921270764475E-16,2.,0.));
#170=CARTESIAN_POINT('Origin',(0.,0.,0.));
#171=CARTESIAN_POINT('Origin',(0.,1.5,0.));
#172=CARTESIAN_POINT('Origin',(1.5,0.,-7.));
#173=UNCERTAINTY_MEASURE_WITH_UNIT(LENGTH_MEASURE(0.01),#177,
'DISTANCE_ACCURACY_VALUE',
'Maximum model space distance between geometric entities at asserted c
onnectivities');
#174=UNCERTAINTY_MEASURE_WITH_UNIT(LENGTH_MEASURE(1.E-6),#177,
'DISTANCE_ACCURACY_VALUE',
'Maximum model space distance between geometric entities at asserted c
onnectivities');
#175=(
GEOMETRIC_REPRESENTATION_CONTEXT(3)
GLOBAL_UNCERTAINTY_ASSIGNED_CONTEXT((#173))
GLOBAL_UNIT_ASSIGNED_CONTEXT((#177,#180,#178))
REPRESENTATION_CONTEXT('','3D')
);
#176=(
GEOMETRIC_REPRESENTATION_CONTEXT(3)
GLOBAL_UNCERTAINTY_ASSIGNED_CONTEXT((#174))
GLOBAL_UNIT_ASSIGNED_CONTEXT((#177,#180,#178))
REPRESENTATION_CONTEXT('','3D')
);
#177=(
LENGTH_UNIT()
NAMED_UNIT(*)
SI_UNIT(.MILLI.,.METRE.)
);
#178=(
NAMED_UNIT(*)
SI_UNIT($,.STERADIAN.)
SOLID_ANGLE_UNIT()
);
#179=DIMENSIONAL_EXPONENTS(0.,0.,0.,0.,0.,0.,0.);
#180=(
CONVERSION_BASED_UNIT('degree',#182)
NAMED_UNIT(#179)
PLANE_ANGLE_UNIT()
);
#181=(
NAMED_UNIT(*)
PLANE_ANGLE_UNIT()
SI_UNIT($,.RADIAN.)
);
#182=PLANE_ANGLE_MEASURE_WITH_UNIT(PLANE_ANGLE_MEASURE(0.01745329252),#181);
#183=SHAPE_DEFINITION_REPRESENTATION(#184,#185);
#184=PRODUCT_DEFINITION_SHAPE('',$,#187);
#185=SHAPE_REPRESENTATION('',(#78),#175);
#186=PRODUCT_DEFINITION_CONTEXT('part definition',#191,'design');
#187=PRODUCT_DEFINITION('SV7108V_A','SV7108V_A',#188,#186);
#188=PRODUCT_DEFINITION_FORMATION('',$,#193);
#189=PRODUCT_RELATED_PRODUCT_CATEGORY('SV7108V_A','SV7108V_A',(#193));
#190=APPLICATION_PROTOCOL_DEFINITION('international standard',
'automotive_design',2009,#191);
#191=APPLICATION_CONTEXT(
'Core Data for Automotive Mechanical Design Process');
#192=PRODUCT_CONTEXT('part definition',#191,'mechanical');
#193=PRODUCT('SV7108V_A','SV7108V_A',$,(#192));
#194=PRESENTATION_STYLE_ASSIGNMENT((#195));
#195=SURFACE_STYLE_USAGE(.BOTH.,#196);
#196=SURFACE_SIDE_STYLE($,(#197));
#197=SURFACE_STYLE_FILL_AREA(#198);
#198=FILL_AREA_STYLE($,(#199));
#199=FILL_AREA_STYLE_COLOUR($,#200);
#200=COLOUR_RGB('',0.63921568627451,0.63921568627451,0.686274509803922);
ENDSEC;
END-ISO-10303-21;
