                                                                        S      1
,,7HSL8601S,27HNo Iges File Name specified,23HAutoDesk Inventor R11.0,  G      1
37HAutoDesk Inventor Iges Exporter R11.0,32,38,6,99,15,7HSL8601S,1.0D0, G      2
2,2HMM,1,.08D0,15H20070910.120525,.01D0,10000.0D0,19HNo Author specifiedG      3
,25HNo Organization specified,11,0,,33HNo Application Protocol specifiedG      4
;                                                                       G      5
     128       1       0       0       0       0       0       000010000D      1
     128       0       0      30       0                               0D      2
     502      31       0       0       0       0       0       000010000D      3
     502       0       0       6       1                               0D      4
     100      37       0       0       0       0       7       000010000D      5
     100       0       0       2       0                               0D      6
     124      39       0       0       0       0       0       000000000D      7
     124       0       0       2       0                               0D      8
     504      41       0       0       0       0       0       000010001D      9
     504       0       0       4       1                               0D     10
     100      45       0       0       0       0      13       000010000D     11
     100       0       0       2       0                               0D     12
     124      47       0       0       0       0       0       000000000D     13
     124       0       0       2       0                               0D     14
     100      49       0       0       0       0      17       000010000D     15
     100       0       0       2       0                               0D     16
     124      51       0       0       0       0       0       000000000D     17
     124       0       0       2       0                               0D     18
     100      53       0       0       0       0      17       000010000D     19
     100       0       0       1       0                               0D     20
     508      54       0       0       0       0       0       000010000D     21
     508       0       0       1       1                               0D     22
     510      55       0       0       0       0       0       000010001D     23
     510       0       0       1       1                               0D     24
     116      56       0       0       0       0       0       000010000D     25
     116       0       0       1       0                               0D     26
     123      57       0       0       0       0       0       000010200D     27
     123       0       0       1       0                               0D     28
     192      58       0       0       0       0       0       000010000D     29
     192       0       0       1       1                               0D     30
     123      59       0       0       0       0       0       000010200D     31
     123       0       0       1       0                               0D     32
     110      60       0       0       0       0       0       000010000D     33
     110       0       0       1       0                               0D     34
     100      61       0       0       0       0      17       000010000D     35
     100       0       0       2       0                               0D     36
     110      63       0       0       0       0       0       000010000D     37
     110       0       0       2       0                               0D     38
     100      65       0       0       0       0      41       000010000D     39
     100       0       0       2       0                               0D     40
     124      67       0       0       0       0       0       000000000D     41
     124       0       0       2       0                               0D     42
     508      69       0       0       0       0       0       000010000D     43
     508       0       0       1       1                               0D     44
     510      70       0       0       0       0       0       000010001D     45
     510       0       0       1       1                               0D     46
     116      71       0       0       0       0       0       000010000D     47
     116       0       0       1       0                               0D     48
     123      72       0       0       0       0       0       000010200D     49
     123       0       0       1       0                               0D     50
     192      73       0       0       0       0       0       000010000D     51
     192       0       0       1       1                               0D     52
     123      74       0       0       0       0       0       000010200D     53
     123       0       0       1       0                               0D     54
     110      75       0       0       0       0       0       000010000D     55
     110       0       0       1       0                               0D     56
     100      76       0       0       0       0      59       000010000D     57
     100       0       0       1       0                               0D     58
     124      77       0       0       0       0       0       000000000D     59
     124       0       0       2       0                               0D     60
     110      79       0       0       0       0       0       000010000D     61
     110       0       0       2       0                               0D     62
     100      81       0       0       0       0      41       000010000D     63
     100       0       0       1       0                               0D     64
     508      82       0       0       0       0       0       000010000D     65
     508       0       0       1       1                               0D     66
     510      83       0       0       0       0       0       000010001D     67
     510       0       0       1       1                               0D     68
     116      84       0       0       0       0       0       000010000D     69
     116       0       0       1       0                               0D     70
     123      85       0       0       0       0       0       000010200D     71
     123       0       0       1       0                               0D     72
     192      86       0       0       0       0       0       000010000D     73
     192       0       0       1       1                               0D     74
     123      87       0       0       0       0       0       000010200D     75
     123       0       0       1       0                               0D     76
     100      88       0       0       0       0      41       000010000D     77
     100       0       0       2       0                               0D     78
     100      90       0       0       0       0      59       000010000D     79
     100       0       0       2       0                               0D     80
     508      92       0       0       0       0       0       000010000D     81
     508       0       0       1       1                               0D     82
     510      93       0       0       0       0       0       000010001D     83
     510       0       0       1       1                               0D     84
     116      94       0       0       0       0       0       000010000D     85
     116       0       0       1       0                               0D     86
     123      95       0       0       0       0       0       000010200D     87
     123       0       0       1       0                               0D     88
     190      96       0       0       0       0       0       000010000D     89
     190       0       0       1       1                               0D     90
     123      97       0       0       0       0       0       000010200D     91
     123       0       0       1       0                               0D     92
     508      98       0       0       0       0       0       000010000D     93
     508       0       0       1       1                               0D     94
     510      99       0       0       0       0       0       000010001D     95
     510       0       0       1       1                               0D     96
     116     100       0       0       0       0       0       000010000D     97
     116       0       0       1       0                               0D     98
     123     101       0       0       0       0       0       000010200D     99
     123       0       0       1       0                               0D    100
     192     102       0       0       0       0       0       000010000D    101
     192       0       0       1       1                               0D    102
     123     103       0       0       0       0       0       000010200D    103
     123       0       0       1       0                               0D    104
     100     104       0       0       0       0      41       000010000D    105
     100       0       0       1       0                               0D    106
     100     105       0       0       0       0      17       000010000D    107
     100       0       0       1       0                               0D    108
     508     106       0       0       0       0       0       000010000D    109
     508       0       0       1       1                               0D    110
     510     107       0       0       0       0       0       000010001D    111
     510       0       0       1       1                               0D    112
     116     108       0       0       0       0       0       000010000D    113
     116       0       0       1       0                               0D    114
     123     109       0       0       0       0       0       000010200D    115
     123       0       0       1       0                               0D    116
     190     110       0       0       0       0       0       000010000D    117
     190       0       0       1       1                               0D    118
     123     111       0       0       0       0       0       000010200D    119
     123       0       0       1       0                               0D    120
     508     112       0       0       0       0       0       000010000D    121
     508       0       0       1       1                               0D    122
     100     113       0       0       0       0      17       000010000D    123
     100       0       0       2       0                               0D    124
     508     115       0       0       0       0       0       000010000D    125
     508       0       0       1       1                               0D    126
     510     116       0       0       0       0       0       000010001D    127
     510       0       0       1       1                               0D    128
     128     117       0       0       0       0       0       000010000D    129
     128       0       0      30       0                               0D    130
     508     147       0       0       0       0       0       000010000D    131
     508       0       0       1       1                               0D    132
     510     148       0       0       0       0       0       000010001D    133
     510       0       0       1       1                               0D    134
     116     149       0       0       0       0       0       000010000D    135
     116       0       0       1       0                               0D    136
     123     150       0       0       0       0       0       000010200D    137
     123       0       0       1       0                               0D    138
     190     151       0       0       0       0       0       000010000D    139
     190       0       0       1       1                               0D    140
     123     152       0       0       0       0       0       000010200D    141
     123       0       0       1       0                               0D    142
     508     153       0       0       0       0       0       000010000D    143
     508       0       0       1       1                               0D    144
     508     154       0       0       0       0       0       000010000D    145
     508       0       0       1       1                               0D    146
     510     155       0       0       0       0       0       000010001D    147
     510       0       0       1       1                               0D    148
     514     156       0       0       0       0       0       000010000D    149
     514       0       0       1       1                               0D    150
     186     157       0       0       1       0       0       000000000D    151
     186       0    -153       1       0                               0D    152
     314     158       0       0       0       0       0       000000200D    153
     314       0       0       2       0                               0D    154
128,2,8,2,2,0,1,0,0,0,9.90792815822778D-2,9.90792815822778D-2,         1P      1
9.90792815822778D-2,.802243370578989D0,.802243370578989D0,             1P      2
.802243370578989D0,0.0D0,0.0D0,0.0D0,1.5707963267949D0,                1P      3
1.5707963267949D0,3.14159265358979D0,3.14159265358979D0,               1P      4
4.71238898038469D0,4.71238898038469D0,6.28318530717959D0,              1P      5
6.28318530717959D0,6.28318530717959D0,1.0D0,.938829057922687D0,        1P      6
1.0D0,.707106781186548D0,.66385239323211D0,.707106781186548D0,         1P      7
1.0D0,.938829057922687D0,1.0D0,.707106781186548D0,                     1P      8
.66385239323211D0,.707106781186548D0,1.0D0,.938829057922687D0,         1P      9
1.0D0,.707106781186548D0,.66385239323211D0,.707106781186548D0,         1P     10
1.0D0,.938829057922687D0,1.0D0,.707106781186548D0,                     1P     11
.66385239323211D0,.707106781186548D0,1.0D0,.938829057922687D0,         1P     12
1.0D0,1.83690953073357D-15,5.0D0,-15.0D0,1.61473493751708D-15,         1P     13
23.2511678317386D0,-13.1857468522598D0,0.0D0,36.0D0,0.0D0,             1P     14
15.0D0,5.0D0,-15.0D0,13.1857468522598D0,23.2511678317386D0,            1P     15
-13.1857468522598D0,0.0D0,36.0D0,0.0D0,15.0D0,5.0D0,                   1P     16
1.83690953073357D-15,13.1857468522598D0,23.2511678317386D0,            1P     17
1.61473493751708D-15,0.0D0,36.0D0,0.0D0,15.0D0,5.0D0,15.0D0,           1P     18
13.1857468522598D0,23.2511678317386D0,13.1857468522598D0,0.0D0,        1P     19
36.0D0,0.0D0,-1.83690953073357D-15,5.0D0,15.0D0,                       1P     20
-1.61473493751708D-15,23.2511678317386D0,13.1857468522598D0,           1P     21
0.0D0,36.0D0,0.0D0,-15.0D0,5.0D0,15.0D0,-13.1857468522598D0,           1P     22
23.2511678317386D0,13.1857468522598D0,0.0D0,36.0D0,0.0D0,              1P     23
-15.0D0,5.0D0,-1.83690953073357D-15,-13.1857468522598D0,               1P     24
23.2511678317386D0,-1.61473493751708D-15,0.0D0,36.0D0,0.0D0,           1P     25
-15.0D0,5.0D0,-15.0D0,-13.1857468522598D0,23.2511678317386D0,          1P     26
-13.1857468522598D0,0.0D0,36.0D0,0.0D0,1.83690953073357D-15,           1P     27
5.0D0,-15.0D0,1.61473493751708D-15,23.2511678317386D0,                 1P     28
-13.1857468522598D0,0.0D0,36.0D0,0.0D0,9.90792815822778D-2,            1P     29
.802243370578989D0,0.0D0,6.28318530717959D0;                           1P     30
502,12,0.0D0,36.0D0,0.0D0,0.0D0,5.0D0,15.0D0,                          3P     31
-1.83690953073357D-15,5.0D0,-15.0D0,-15.0D0,5.0D0,0.0D0,-16.0D0,       3P     32
5.0D0,0.0D0,-16.0D0,0.0D0,0.0D0,16.0D0,5.0D0,                          3P     33
-1.9593701661158D-15,16.0D0,0.0D0,-1.9593701661158D-15,-4.0D0,         3P     34
-20.0D0,0.0D0,-4.0D0,0.0D0,0.0D0,4.0D0,-20.0D0,                        3P     35
4.89842541528951D-16,4.0D0,0.0D0,4.89842541528951D-16;                 3P     36
100,0.0D0,0.0D0,0.0D0,34.7547830993409D0,-35.9458627900037D0,          5P     37
49.7547830993409D0,-4.94586279000368D0;                                5P     38
124,0.0D0,0.0D0,1.0D0,0.0D0,0.0D0,-1.0D0,0.0D0,                        7P     39
5.41372099963455D-2,1.0D0,0.0D0,0.0D0,-34.7547830993409D0;             7P     40
504,17,5,3,1,3,2,11,3,1,3,3,15,3,3,3,4,19,3,4,3,2,33,3,5,3,6,35,       9P     41
3,7,3,5,37,3,7,3,8,39,3,8,3,6,55,3,9,3,10,57,3,9,3,11,61,3,11,3,       9P     42
12,63,3,10,3,12,77,3,12,3,10,79,3,11,3,9,105,3,6,3,8,107,3,5,3,        9P     43
7,123,3,2,3,3;                                                         9P     44
100,0.0D0,0.0D0,0.0D0,34.7547830993409D0,-35.9458627900037D0,         11P     45
49.7547830993409D0,-4.94586279000368D0;                               11P     46
124,0.0D0,0.0D0,-1.0D0,4.25609282091714D-15,0.0D0,-1.0D0,0.0D0,       13P     47
5.41372099963455D-2,-1.0D0,0.0D0,0.0D0,34.7547830993409D0;            13P     48
100,0.0D0,0.0D0,0.0D0,-2.75536429610035D-15,-15.0D0,15.0D0,           15P     49
-3.67381906146713D-15;                                                15P     50
124,-1.0D0,0.0D0,0.0D0,0.0D0,0.0D0,0.0D0,1.0D0,5.0D0,0.0D0,           17P     51
1.0D0,0.0D0,0.0D0;                                                    17P     52
100,0.0D0,0.0D0,0.0D0,15.0D0,0.0D0,9.18454765366783D-16,15.0D0;       19P     53
508,4,0,9,1,0,0,0,9,2,1,0,0,9,3,1,0,0,9,4,1,0;                        21P     54
510,1,1,1,21;                                                         23P     55
116,0.0D0,2.5D0,0.0D0,0;                                              25P     56
123,0.0D0,1.0D0,0.0D0;                                                27P     57
192,25,27,16.0D0,31;                                                  29P     58
123,-1.0D0,0.0D0,0.0D0;                                               31P     59
110,-16.0D0,5.0D0,0.0D0,-16.0D0,0.0D0,0.0D0;                          33P     60
100,0.0D0,0.0D0,0.0D0,-16.0D0,1.9593701661158D-15,16.0D0,             35P     61
-3.91874033223161D-15;                                                35P     62
110,16.0D0,5.0D0,-1.9593701661158D-15,16.0D0,0.0D0,                   37P     63
-1.9593701661158D-15;                                                 37P     64
100,0.0D0,0.0D0,0.0D0,-16.0D0,1.9593701661158D-15,16.0D0,             39P     65
-3.91874033223161D-15;                                                39P     66
124,-1.0D0,0.0D0,0.0D0,0.0D0,0.0D0,0.0D0,1.0D0,0.0D0,0.0D0,           41P     67
1.0D0,0.0D0,0.0D0;                                                    41P     68
508,4,0,9,5,0,0,0,9,6,0,0,0,9,7,1,0,0,9,8,1,0;                        43P     69
510,29,1,1,43;                                                        45P     70
116,0.0D0,0.0D0,0.0D0,0;                                              47P     71
123,0.0D0,-1.0D0,0.0D0;                                               49P     72
192,47,49,4.0D0,53;                                                   51P     73
123,-1.0D0,0.0D0,0.0D0;                                               53P     74
110,-4.0D0,-20.0D0,0.0D0,-4.0D0,0.0D0,0.0D0;                          55P     75
100,0.0D0,0.0D0,0.0D0,4.0D0,0.0D0,-4.0D0,4.89842541528951D-16;        57P     76
124,-1.0D0,0.0D0,0.0D0,0.0D0,0.0D0,0.0D0,1.0D0,-20.0D0,0.0D0,         59P     77
1.0D0,0.0D0,0.0D0;                                                    59P     78
110,4.0D0,-20.0D0,4.89842541528951D-16,4.0D0,0.0D0,                   61P     79
4.89842541528951D-16;                                                 61P     80
100,0.0D0,0.0D0,0.0D0,4.0D0,0.0D0,-4.0D0,4.89842541528951D-16;        63P     81
508,4,0,9,9,0,0,0,9,10,1,0,0,9,11,1,0,0,9,12,0,0;                     65P     82
510,51,1,1,65;                                                        67P     83
116,0.0D0,0.0D0,0.0D0,0;                                              69P     84
123,0.0D0,-1.0D0,0.0D0;                                               71P     85
192,69,71,4.0D0,75;                                                   73P     86
123,-1.0D0,0.0D0,0.0D0;                                               75P     87
100,0.0D0,0.0D0,0.0D0,-4.0D0,4.89842541528951D-16,4.0D0,              77P     88
-9.79685083057902D-16;                                                77P     89
100,0.0D0,0.0D0,0.0D0,-4.0D0,4.89842541528951D-16,4.0D0,              79P     90
-9.79685083057902D-16;                                                79P     91
508,4,0,9,9,1,0,0,9,13,0,0,0,9,11,0,0,0,9,14,1,0;                     81P     92
510,73,1,1,81;                                                        83P     93
116,0.0D0,-20.0D0,0.0D0,0;                                            85P     94
123,0.0D0,-1.0D0,0.0D0;                                               87P     95
190,85,87,91;                                                         89P     96
123,0.0D0,0.0D0,-1.0D0;                                               91P     97
508,2,0,9,14,0,0,0,9,10,0,0;                                          93P     98
510,89,1,1,93;                                                        95P     99
116,0.0D0,2.5D0,0.0D0,0;                                              97P    100
123,0.0D0,1.0D0,0.0D0;                                                99P    101
192,97,99,16.0D0,103;                                                101P    102
123,-1.0D0,0.0D0,0.0D0;                                              103P    103
100,0.0D0,0.0D0,0.0D0,16.0D0,0.0D0,-16.0D0,1.9593701661158D-15;      105P    104
100,0.0D0,0.0D0,0.0D0,16.0D0,0.0D0,-16.0D0,1.9593701661158D-15;      107P    105
508,4,0,9,5,1,0,0,9,15,1,0,0,9,7,0,0,0,9,16,0,0;                     109P    106
510,101,1,1,109;                                                     111P    107
116,-15.5D0,5.0D0,0.0D0,0;                                           113P    108
123,0.0D0,1.0D0,0.0D0;                                               115P    109
190,113,115,119;                                                     117P    110
123,0.0D0,0.0D0,1.0D0;                                               119P    111
508,2,0,9,16,1,0,0,9,6,1,0;                                          121P    112
100,0.0D0,0.0D0,0.0D0,9.18454765366783D-16,15.0D0,                   123P    113
-2.75536429610035D-15,-15.0D0;                                       123P    114
508,3,0,9,4,0,0,0,9,3,0,0,0,9,17,0,0;                                125P    115
510,117,2,1,121,125;                                                 127P    116
128,2,8,2,2,0,1,0,0,0,9.90792815822778D-2,9.90792815822778D-2,       129P    117
9.90792815822778D-2,.802243370578989D0,.802243370578989D0,           129P    118
.802243370578989D0,0.0D0,0.0D0,0.0D0,1.5707963267949D0,              129P    119
1.5707963267949D0,3.14159265358979D0,3.14159265358979D0,             129P    120
4.71238898038469D0,4.71238898038469D0,6.28318530717959D0,            129P    121
6.28318530717959D0,6.28318530717959D0,1.0D0,.938829057922687D0,      129P    122
1.0D0,.707106781186548D0,.66385239323211D0,.707106781186548D0,       129P    123
1.0D0,.938829057922687D0,1.0D0,.707106781186548D0,                   129P    124
.66385239323211D0,.707106781186548D0,1.0D0,.938829057922687D0,       129P    125
1.0D0,.707106781186548D0,.66385239323211D0,.707106781186548D0,       129P    126
1.0D0,.938829057922687D0,1.0D0,.707106781186548D0,                   129P    127
.66385239323211D0,.707106781186548D0,1.0D0,.938829057922687D0,       129P    128
1.0D0,1.83690953073357D-15,5.0D0,-15.0D0,1.61473493751708D-15,       129P    129
23.2511678317386D0,-13.1857468522598D0,0.0D0,36.0D0,0.0D0,           129P    130
15.0D0,5.0D0,-15.0D0,13.1857468522598D0,23.2511678317386D0,          129P    131
-13.1857468522598D0,0.0D0,36.0D0,0.0D0,15.0D0,5.0D0,                 129P    132
1.83690953073357D-15,13.1857468522598D0,23.2511678317386D0,          129P    133
1.61473493751708D-15,0.0D0,36.0D0,0.0D0,15.0D0,5.0D0,15.0D0,         129P    134
13.1857468522598D0,23.2511678317386D0,13.1857468522598D0,0.0D0,      129P    135
36.0D0,0.0D0,-1.83690953073357D-15,5.0D0,15.0D0,                     129P    136
-1.61473493751708D-15,23.2511678317386D0,13.1857468522598D0,         129P    137
0.0D0,36.0D0,0.0D0,-15.0D0,5.0D0,15.0D0,-13.1857468522598D0,         129P    138
23.2511678317386D0,13.1857468522598D0,0.0D0,36.0D0,0.0D0,            129P    139
-15.0D0,5.0D0,-1.83690953073357D-15,-13.1857468522598D0,             129P    140
23.2511678317386D0,-1.61473493751708D-15,0.0D0,36.0D0,0.0D0,         129P    141
-15.0D0,5.0D0,-15.0D0,-13.1857468522598D0,23.2511678317386D0,        129P    142
-13.1857468522598D0,0.0D0,36.0D0,0.0D0,1.83690953073357D-15,         129P    143
5.0D0,-15.0D0,1.61473493751708D-15,23.2511678317386D0,               129P    144
-13.1857468522598D0,0.0D0,36.0D0,0.0D0,9.90792815822778D-2,          129P    145
.802243370578989D0,0.0D0,6.28318530717959D0;                         129P    146
508,3,0,9,1,1,0,0,9,17,1,0,0,9,2,0,0;                                131P    147
510,129,1,1,131;                                                     133P    148
116,-8.0D0,0.0D0,0.0D0,0;                                            135P    149
123,0.0D0,-1.0D0,0.0D0;                                              137P    150
190,135,137,141;                                                     139P    151
123,0.0D0,0.0D0,-1.0D0;                                              141P    152
508,2,0,9,15,0,0,0,9,8,0,0;                                          143P    153
508,2,0,9,13,1,0,0,9,12,1,0;                                         145P    154
510,139,2,1,143,145;                                                 147P    155
514,9,23,1,45,1,67,1,83,1,95,1,111,1,127,1,133,1,147,1;              149P    156
186,149,1,0;                                                         151P    157
314,32.1568638086319D0,32.1568638086319D0,32.1568638086319D0,7HS     153P    158
chwarz;                                                              153P    159
S      1G      5D    154P    159                                        T      1
