ISO-10303-21;
HEADER;
/****************************************************************
 * Generated by software with PDElib inside                    *
 * PDElib Version v51a, created Wed 07/06/2011                  *
 * ITI Transcendata (http://www.transcendata.com/)              *
 ****************************************************************/
FILE_DESCRIPTION((''),'2;1');
FILE_NAME('U:\\Paletti Norm\\Paletti Artikel\\SZ\\SZ0135S_A.stp','2013-08-20T14:59:38',('janine behrens'),(''),'Autodesk Inventor 2012','Autodesk Inventor 2012','');
FILE_SCHEMA(('AUTOMOTIVE_DESIGN { 1 0 10303 214 1 1 1 1 }'));
ENDSEC;
DATA;
#5=APPLICATION_CONTEXT('automotive design');
#6=APPLICATION_PROTOCOL_DEFINITION('International Standard','automotive_design',2001,#5);
#7=PRODUCT_CONTEXT('',#5,'mechanical');
#8=PRODUCT('SZ0135S_A','SZ0135S_A',$,(#7));
#9=PRODUCT_RELATED_PRODUCT_CATEGORY('part',$,(#8));
#10=PRODUCT_DEFINITION_FORMATION('',$,#8);
#11=PRODUCT_DEFINITION_CONTEXT('part definition',#5,'design');
#12=PRODUCT_DEFINITION('',$,#10,#11);
#18=(NAMED_UNIT(*)PLANE_ANGLE_UNIT()SI_UNIT($,.RADIAN.));
#19=DIMENSIONAL_EXPONENTS(0.0,0.0,0.0,0.0,0.0,0.0,0.0);
#20=PLANE_ANGLE_MEASURE_WITH_UNIT(PLANE_ANGLE_MEASURE(0.0174532925),#18);
#24=(CONVERSION_BASED_UNIT('DEGREE',#20)NAMED_UNIT(#19)PLANE_ANGLE_UNIT());
#28=(NAMED_UNIT(*)SI_UNIT($,.STERADIAN.)SOLID_ANGLE_UNIT());
#32=(LENGTH_UNIT()NAMED_UNIT(*)SI_UNIT(.MILLI.,.METRE.));
#34=UNCERTAINTY_MEASURE_WITH_UNIT(LENGTH_MEASURE(0.01),#32,'DISTANCE_ACCURACY_VALUE','');
#36=(GEOMETRIC_REPRESENTATION_CONTEXT(3)GLOBAL_UNCERTAINTY_ASSIGNED_CONTEXT((#34))GLOBAL_UNIT_ASSIGNED_CONTEXT((#24,#28,#32))REPRESENTATION_CONTEXT('None','None'));
#37=AXIS2_PLACEMENT_3D('',#38,#39,#40);
#38=CARTESIAN_POINT('',(0.0,0.0,0.0));
#39=DIRECTION('',(0.0,0.0,1.0));
#40=DIRECTION('',(1.0,0.0,0.0));
#41=SHAPE_REPRESENTATION('',(#37),#36);
#42=PRODUCT_DEFINITION_SHAPE('','',#12);
#43=SHAPE_DEFINITION_REPRESENTATION(#42,#41);
#49=(NAMED_UNIT(*)PLANE_ANGLE_UNIT()SI_UNIT($,.RADIAN.));
#50=DIMENSIONAL_EXPONENTS(0.0,0.0,0.0,0.0,0.0,0.0,0.0);
#51=PLANE_ANGLE_MEASURE_WITH_UNIT(PLANE_ANGLE_MEASURE(0.0174532925),#49);
#55=(CONVERSION_BASED_UNIT('DEGREE',#51)NAMED_UNIT(#50)PLANE_ANGLE_UNIT());
#59=(NAMED_UNIT(*)SI_UNIT($,.STERADIAN.)SOLID_ANGLE_UNIT());
#63=(LENGTH_UNIT()NAMED_UNIT(*)SI_UNIT(.MILLI.,.METRE.));
#65=UNCERTAINTY_MEASURE_WITH_UNIT(LENGTH_MEASURE(0.000001),#63,'DISTANCE_ACCURACY_VALUE','');
#67=(GEOMETRIC_REPRESENTATION_CONTEXT(3)GLOBAL_UNCERTAINTY_ASSIGNED_CONTEXT((#65))GLOBAL_UNIT_ASSIGNED_CONTEXT((#55,#59,#63))REPRESENTATION_CONTEXT('','3D'));
#68=CARTESIAN_POINT('',(0.0,-2.050000000000001,-0.999999999999999));
#69=DIRECTION('',(0.0,0.0,-1.0));
#70=DIRECTION('',(-1.0,0.0,0.0));
#71=AXIS2_PLACEMENT_3D('',#68,#69,#70);
#72=PLANE('',#71);
#73=CARTESIAN_POINT('',(0.0,-4.100000000000001,-1.0));
#74=VERTEX_POINT('',#73);
#75=CARTESIAN_POINT('',(0.0,0.0,-1.0));
#76=DIRECTION('',(0.0,0.0,1.0));
#77=DIRECTION('',(0.0,-1.0,0.0));
#78=AXIS2_PLACEMENT_3D('',#75,#76,#77);
#79=CIRCLE('',#78,4.100000000000001);
#80=EDGE_CURVE('',#74,#74,#79,.T.);
#81=ORIENTED_EDGE('',*,*,#80,.F.);
#82=EDGE_LOOP('',(#81));
#83=FACE_OUTER_BOUND('',#82,.T.);
#84=ADVANCED_FACE('',(#83),#72,.T.);
#85=CARTESIAN_POINT('',(0.0,0.0,-1.999999999999999));
#86=DIRECTION('',(0.0,0.0,1.0));
#87=DIRECTION('',(1.0,0.0,0.0));
#88=AXIS2_PLACEMENT_3D('',#85,#86,#87);
#89=TOROIDAL_SURFACE('',#88,4.100000000000001,1.0);
#90=CARTESIAN_POINT('',(0.0,-5.100000000000001,-2.0));
#91=VERTEX_POINT('',#90);
#92=CARTESIAN_POINT('',(0.0,0.0,-2.0));
#93=DIRECTION('',(0.0,0.0,1.0));
#94=DIRECTION('',(0.0,-1.0,0.0));
#95=AXIS2_PLACEMENT_3D('',#92,#93,#94);
#96=CIRCLE('',#95,5.100000000000001);
#97=EDGE_CURVE('',#91,#91,#96,.T.);
#98=ORIENTED_EDGE('',*,*,#97,.F.);
#99=EDGE_LOOP('',(#98));
#100=FACE_OUTER_BOUND('',#99,.T.);
#101=ORIENTED_EDGE('',*,*,#80,.T.);
#102=EDGE_LOOP('',(#101));
#103=FACE_BOUND('',#102,.T.);
#104=ADVANCED_FACE('',(#100,#103),#89,.F.);
#105=CARTESIAN_POINT('',(0.0,0.0,-3.25));
#106=DIRECTION('',(0.0,0.0,1.0));
#107=DIRECTION('',(0.0,-1.0,0.0));
#108=AXIS2_PLACEMENT_3D('',#105,#106,#107);
#109=CYLINDRICAL_SURFACE('',#108,5.1);
#110=CARTESIAN_POINT('',(0.0,-5.1,-4.5));
#111=VERTEX_POINT('',#110);
#112=CARTESIAN_POINT('',(0.0,0.0,-4.5));
#113=DIRECTION('',(0.0,0.0,1.0));
#114=DIRECTION('',(0.0,-1.0,0.0));
#115=AXIS2_PLACEMENT_3D('',#112,#113,#114);
#116=CIRCLE('',#115,5.1);
#117=EDGE_CURVE('',#111,#111,#116,.T.);
#118=ORIENTED_EDGE('',*,*,#117,.F.);
#119=EDGE_LOOP('',(#118));
#120=FACE_OUTER_BOUND('',#119,.T.);
#121=ORIENTED_EDGE('',*,*,#97,.T.);
#122=EDGE_LOOP('',(#121));
#123=FACE_BOUND('',#122,.T.);
#124=ADVANCED_FACE('',(#120,#123),#109,.F.);
#125=CARTESIAN_POINT('',(0.0,-5.550000000000001,-4.5));
#126=DIRECTION('',(0.0,0.0,-1.0));
#127=DIRECTION('',(-1.0,0.0,0.0));
#128=AXIS2_PLACEMENT_3D('',#125,#126,#127);
#129=PLANE('',#128);
#130=CARTESIAN_POINT('',(0.0,-6.000000000000001,-4.500000000000001));
#131=VERTEX_POINT('',#130);
#132=CARTESIAN_POINT('',(0.0,0.0,-4.500000000000001));
#133=DIRECTION('',(0.0,0.0,1.0));
#134=DIRECTION('',(0.0,-1.0,0.0));
#135=AXIS2_PLACEMENT_3D('',#132,#133,#134);
#136=CIRCLE('',#135,6.000000000000001);
#137=EDGE_CURVE('',#131,#131,#136,.T.);
#138=ORIENTED_EDGE('',*,*,#137,.F.);
#139=EDGE_LOOP('',(#138));
#140=FACE_OUTER_BOUND('',#139,.T.);
#141=ORIENTED_EDGE('',*,*,#117,.T.);
#142=EDGE_LOOP('',(#141));
#143=FACE_BOUND('',#142,.T.);
#144=ADVANCED_FACE('',(#140,#143),#129,.T.);
#145=CARTESIAN_POINT('',(0.0,0.0,-3.75));
#146=DIRECTION('',(0.0,0.0,1.0));
#147=DIRECTION('',(0.0,-1.0,0.0));
#148=AXIS2_PLACEMENT_3D('',#145,#146,#147);
#149=CONICAL_SURFACE('',#148,6.15,11.309932474020181);
#150=CARTESIAN_POINT('',(0.0,-6.3,-3.0));
#151=VERTEX_POINT('',#150);
#152=CARTESIAN_POINT('',(0.0,0.0,-3.0));
#153=DIRECTION('',(0.0,0.0,1.0));
#154=DIRECTION('',(0.0,-1.0,0.0));
#155=AXIS2_PLACEMENT_3D('',#152,#153,#154);
#156=CIRCLE('',#155,6.3);
#157=EDGE_CURVE('',#151,#151,#156,.T.);
#158=ORIENTED_EDGE('',*,*,#157,.F.);
#159=EDGE_LOOP('',(#158));
#160=FACE_OUTER_BOUND('',#159,.T.);
#161=ORIENTED_EDGE('',*,*,#137,.T.);
#162=EDGE_LOOP('',(#161));
#163=FACE_BOUND('',#162,.T.);
#164=ADVANCED_FACE('',(#160,#163),#149,.T.);
#165=CARTESIAN_POINT('',(0.0,0.0,-2.374165738677394));
#166=DIRECTION('',(0.0,0.0,1.0));
#167=DIRECTION('',(0.0,-1.0,0.0));
#168=AXIS2_PLACEMENT_3D('',#165,#166,#167);
#169=CYLINDRICAL_SURFACE('',#168,6.3);
#170=CARTESIAN_POINT('',(0.0,-6.3,-1.748331477354788));
#171=VERTEX_POINT('',#170);
#172=CARTESIAN_POINT('',(0.0,0.0,-1.748331477354788));
#173=DIRECTION('',(0.0,0.0,1.0));
#174=DIRECTION('',(0.0,-1.0,0.0));
#175=AXIS2_PLACEMENT_3D('',#172,#173,#174);
#176=CIRCLE('',#175,6.3);
#177=EDGE_CURVE('',#171,#171,#176,.T.);
#178=ORIENTED_EDGE('',*,*,#177,.F.);
#179=EDGE_LOOP('',(#178));
#180=FACE_OUTER_BOUND('',#179,.T.);
#181=ORIENTED_EDGE('',*,*,#157,.T.);
#182=EDGE_LOOP('',(#181));
#183=FACE_BOUND('',#182,.T.);
#184=ADVANCED_FACE('',(#180,#183),#169,.T.);
#185=CARTESIAN_POINT('',(0.0,0.0,-1.748331477354789));
#186=DIRECTION('',(0.0,0.0,1.0));
#187=DIRECTION('',(1.0,0.0,0.0));
#188=AXIS2_PLACEMENT_3D('',#185,#186,#187);
#189=TOROIDAL_SURFACE('',#188,5.799999999999999,0.500000000000002);
#190=CARTESIAN_POINT('',(0.0,-6.077777777777778,-1.332591767713239));
#191=VERTEX_POINT('',#190);
#192=CARTESIAN_POINT('',(0.0,0.0,-1.332591767713239));
#193=DIRECTION('',(0.0,0.0,1.0));
#194=DIRECTION('',(0.0,-1.0,0.0));
#195=AXIS2_PLACEMENT_3D('',#192,#193,#194);
#196=CIRCLE('',#195,6.077777777777778);
#197=EDGE_CURVE('',#191,#191,#196,.T.);
#198=ORIENTED_EDGE('',*,*,#197,.F.);
#199=EDGE_LOOP('',(#198));
#200=FACE_OUTER_BOUND('',#199,.T.);
#201=ORIENTED_EDGE('',*,*,#177,.T.);
#202=EDGE_LOOP('',(#201));
#203=FACE_BOUND('',#202,.T.);
#204=ADVANCED_FACE('',(#200,#203),#189,.T.);
#205=CARTESIAN_POINT('',(0.0,0.0,-1.0));
#206=DIRECTION('',(0.0,0.0,1.0));
#207=DIRECTION('',(1.0,0.0,0.0));
#208=AXIS2_PLACEMENT_3D('',#205,#206,#207);
#209=TOROIDAL_SURFACE('',#208,6.3,0.4);
#210=CARTESIAN_POINT('',(0.0,-6.3,-0.6));
#211=VERTEX_POINT('',#210);
#212=CARTESIAN_POINT('',(0.0,0.0,-0.6));
#213=DIRECTION('',(0.0,0.0,1.0));
#214=DIRECTION('',(0.0,-1.0,0.0));
#215=AXIS2_PLACEMENT_3D('',#212,#213,#214);
#216=CIRCLE('',#215,6.3);
#217=EDGE_CURVE('',#211,#211,#216,.T.);
#218=ORIENTED_EDGE('',*,*,#217,.F.);
#219=EDGE_LOOP('',(#218));
#220=FACE_OUTER_BOUND('',#219,.T.);
#221=ORIENTED_EDGE('',*,*,#197,.T.);
#222=EDGE_LOOP('',(#221));
#223=FACE_BOUND('',#222,.T.);
#224=ADVANCED_FACE('',(#220,#223),#209,.F.);
#225=CARTESIAN_POINT('',(0.0,-6.372157287525382,-0.6));
#226=DIRECTION('',(0.0,0.0,-1.0));
#227=DIRECTION('',(-1.0,0.0,0.0));
#228=AXIS2_PLACEMENT_3D('',#225,#226,#227);
#229=PLANE('',#228);
#230=CARTESIAN_POINT('',(0.0,-6.444314575050763,-0.6));
#231=VERTEX_POINT('',#230);
#232=CARTESIAN_POINT('',(0.0,0.0,-0.6));
#233=DIRECTION('',(0.0,0.0,1.0));
#234=DIRECTION('',(0.0,-1.0,0.0));
#235=AXIS2_PLACEMENT_3D('',#232,#233,#234);
#236=CIRCLE('',#235,6.444314575050763);
#237=EDGE_CURVE('',#231,#231,#236,.T.);
#238=ORIENTED_EDGE('',*,*,#237,.F.);
#239=EDGE_LOOP('',(#238));
#240=FACE_OUTER_BOUND('',#239,.T.);
#241=ORIENTED_EDGE('',*,*,#217,.T.);
#242=EDGE_LOOP('',(#241));
#243=FACE_BOUND('',#242,.T.);
#244=ADVANCED_FACE('',(#240,#243),#229,.T.);
#245=CARTESIAN_POINT('',(0.0,0.0,-0.099999999999993));
#246=DIRECTION('',(0.0,0.0,1.0));
#247=DIRECTION('',(1.0,0.0,0.0));
#248=AXIS2_PLACEMENT_3D('',#245,#246,#247);
#249=TOROIDAL_SURFACE('',#248,6.44431457505076,0.500000000000007);
#250=CARTESIAN_POINT('',(0.0,-6.797867965644036,-0.453553390593273));
#251=VERTEX_POINT('',#250);
#252=CARTESIAN_POINT('',(0.0,0.0,-0.453553390593273));
#253=DIRECTION('',(0.0,0.0,1.0));
#254=DIRECTION('',(0.0,-1.0,0.0));
#255=AXIS2_PLACEMENT_3D('',#252,#253,#254);
#256=CIRCLE('',#255,6.797867965644036);
#257=EDGE_CURVE('',#251,#251,#256,.T.);
#258=ORIENTED_EDGE('',*,*,#257,.F.);
#259=EDGE_LOOP('',(#258));
#260=FACE_OUTER_BOUND('',#259,.T.);
#261=ORIENTED_EDGE('',*,*,#237,.T.);
#262=EDGE_LOOP('',(#261));
#263=FACE_BOUND('',#262,.T.);
#264=ADVANCED_FACE('',(#260,#263),#249,.T.);
#265=CARTESIAN_POINT('',(0.0,0.0,-0.312132034355964));
#266=DIRECTION('',(0.0,0.0,1.0));
#267=DIRECTION('',(0.0,-1.0,0.0));
#268=AXIS2_PLACEMENT_3D('',#265,#266,#267);
#269=CONICAL_SURFACE('',#268,6.939289321881345,45.000000000000227);
#270=CARTESIAN_POINT('',(0.0,-7.080710678118656,-0.170710678118655));
#271=VERTEX_POINT('',#270);
#272=CARTESIAN_POINT('',(0.0,0.0,-0.170710678118655));
#273=DIRECTION('',(0.0,0.0,1.0));
#274=DIRECTION('',(0.0,-1.0,0.0));
#275=AXIS2_PLACEMENT_3D('',#272,#273,#274);
#276=CIRCLE('',#275,7.080710678118656);
#277=EDGE_CURVE('',#271,#271,#276,.T.);
#278=ORIENTED_EDGE('',*,*,#277,.F.);
#279=EDGE_LOOP('',(#278));
#280=FACE_OUTER_BOUND('',#279,.T.);
#281=ORIENTED_EDGE('',*,*,#257,.T.);
#282=EDGE_LOOP('',(#281));
#283=FACE_BOUND('',#282,.T.);
#284=ADVANCED_FACE('',(#280,#283),#269,.T.);
#285=CARTESIAN_POINT('',(0.0,0.0,-0.1));
#286=DIRECTION('',(0.0,0.0,1.0));
#287=DIRECTION('',(1.0,0.0,0.0));
#288=AXIS2_PLACEMENT_3D('',#285,#286,#287);
#289=TOROIDAL_SURFACE('',#288,7.010000000000001,0.1);
#290=CARTESIAN_POINT('',(0.0,-7.010000000000001,8.673617E-017));
#291=VERTEX_POINT('',#290);
#292=CARTESIAN_POINT('',(0.0,0.0,1.387779E-016));
#293=DIRECTION('',(0.0,0.0,1.0));
#294=DIRECTION('',(0.0,-1.0,0.0));
#295=AXIS2_PLACEMENT_3D('',#292,#293,#294);
#296=CIRCLE('',#295,7.010000000000001);
#297=EDGE_CURVE('',#291,#291,#296,.T.);
#298=ORIENTED_EDGE('',*,*,#297,.F.);
#299=EDGE_LOOP('',(#298));
#300=FACE_OUTER_BOUND('',#299,.T.);
#301=ORIENTED_EDGE('',*,*,#277,.T.);
#302=EDGE_LOOP('',(#301));
#303=FACE_BOUND('',#302,.T.);
#304=ADVANCED_FACE('',(#300,#303),#289,.T.);
#305=CARTESIAN_POINT('',(0.0,-3.505,4.336809E-017));
#306=DIRECTION('',(0.0,0.0,1.0));
#307=DIRECTION('',(1.0,0.0,0.0));
#308=AXIS2_PLACEMENT_3D('',#305,#306,#307);
#309=PLANE('',#308);
#310=ORIENTED_EDGE('',*,*,#297,.T.);
#311=EDGE_LOOP('',(#310));
#312=FACE_OUTER_BOUND('',#311,.T.);
#313=ADVANCED_FACE('',(#312),#309,.T.);
#314=CLOSED_SHELL('',(#84,#104,#124,#144,#164,#184,#204,#224,#244,#264,#284,#304,#313));
#315=MANIFOLD_SOLID_BREP('Volumenk\S\vrper1',#314);
#316=DRAUGHTING_PRE_DEFINED_COLOUR('black');
#317=FILL_AREA_STYLE_COLOUR('Schwarz',#316);
#318=FILL_AREA_STYLE('Schwarz',(#317));
#319=SURFACE_STYLE_FILL_AREA(#318);
#320=SURFACE_SIDE_STYLE('Schwarz',(#319));
#321=SURFACE_STYLE_USAGE(.BOTH.,#320);
#322=PRESENTATION_STYLE_ASSIGNMENT((#321));
#323=STYLED_ITEM('',(#322),#315);
#324=MECHANICAL_DESIGN_GEOMETRIC_PRESENTATION_REPRESENTATION('',(#323),#36);
#325=ADVANCED_BREP_SHAPE_REPRESENTATION('ABSR',(#315),#36);
#326=SHAPE_REPRESENTATION_RELATIONSHIP('SRR','None',#325,#41);
ENDSEC;
END-ISO-10303-21;
