  0
SECTION
  2
HEADER
  9
$ACADVER
  1
AC1014
  9
$ACADMAINTVER
 70
     9
  9
$DWGCODEPAGE
  3
ANSI_1252
  9
$INSBASE
 10
0.0
 20
0.0
 30
0.0
  9
$EXTMIN
 10
-40.75495
 20
-40.757057
 30
0.0
  9
$EXTMAX
 10
40.756433
 20
40.754325
 30
0.0
  9
$LIMMIN
 10
0.0
 20
0.0
  9
$LIMMAX
 10
210.0
 20
297.0
  9
$ORTHOMODE
 70
     0
  9
$REGENMODE
 70
     1
  9
$FILLMODE
 70
     1
  9
$QTEXTMODE
 70
     0
  9
$MIRRTEXT
 70
     1
  9
$DRAGMODE
 70
     2
  9
$LTSCALE
 40
5.0
  9
$OSMODE
 70
     3
  9
$ATTMODE
 70
     1
  9
$TEXTSIZE
 40
3.5
  9
$TRACEWID
 40
1.0
  9
$TEXTSTYLE
  7
STANDARD
  9
$CLAYER
  8
2D_PROFILE
  9
$CELTYPE
  6
BYLAYER
  9
$CECOLOR
 62
   256
  9
$CELTSCALE
 40
1.0
  9
$DELOBJ
 70
     1
  9
$DISPSILH
 70
     0
  9
$DIMSCALE
 40
1.0
  9
$DIMASZ
 40
3.0
  9
$DIMEXO
 40
1.0
  9
$DIMDLI
 40
0.0
  9
$DIMRND
 40
0.0
  9
$DIMDLE
 40
0.0
  9
$DIMEXE
 40
1.0
  9
$DIMTP
 40
0.0
  9
$DIMTM
 40
0.2
  9
$DIMTXT
 40
3.0
  9
$DIMCEN
 40
0.0
  9
$DIMTSZ
 40
0.0
  9
$DIMTOL
 70
     0
  9
$DIMLIM
 70
     0
  9
$DIMTIH
 70
     0
  9
$DIMTOH
 70
     0
  9
$DIMSE1
 70
     0
  9
$DIMSE2
 70
     0
  9
$DIMTAD
 70
     1
  9
$DIMZIN
 70
     8
  9
$DIMBLK
  1

  9
$DIMASO
 70
     1
  9
$DIMSHO
 70
     1
  9
$DIMPOST
  1

  9
$DIMAPOST
  1

  9
$DIMALT
 70
     0
  9
$DIMALTD
 70
     2
  9
$DIMALTF
 40
25.4
  9
$DIMLFAC
 40
1.0
  9
$DIMTOFL
 70
     1
  9
$DIMTVP
 40
0.0
  9
$DIMTIX
 70
     0
  9
$DIMSOXD
 70
     0
  9
$DIMSAH
 70
     0
  9
$DIMBLK1
  1

  9
$DIMBLK2
  1

  9
$DIMSTYLE
  2
PALETTI
  9
$DIMCLRD
 70
   256
  9
$DIMCLRE
 70
   256
  9
$DIMCLRT
 70
   256
  9
$DIMTFAC
 40
0.7
  9
$DIMGAP
 40
0.7
  9
$DIMJUST
 70
     0
  9
$DIMSD1
 70
     0
  9
$DIMSD2
 70
     0
  9
$DIMTOLJ
 70
     1
  9
$DIMTZIN
 70
     8
  9
$DIMALTZ
 70
     8
  9
$DIMALTTZ
 70
     8
  9
$DIMFIT
 70
     5
  9
$DIMUPT
 70
     0
  9
$DIMUNIT
 70
     2
  9
$DIMDEC
 70
     4
  9
$DIMTDEC
 70
     4
  9
$DIMALTU
 70
     2
  9
$DIMALTTD
 70
     2
  9
$DIMTXSTY
  7
STANDARD
  9
$DIMAUNIT
 70
     0
  9
$LUNITS
 70
     2
  9
$LUPREC
 70
     4
  9
$SKETCHINC
 40
1.0
  9
$FILLETRAD
 40
4.0
  9
$AUNITS
 70
     0
  9
$AUPREC
 70
     0
  9
$MENU
  1
acad
  9
$ELEVATION
 40
0.0
  9
$PELEVATION
 40
0.0
  9
$THICKNESS
 40
0.0
  9
$LIMCHECK
 70
     0
  9
$BLIPMODE
 70
     0
  9
$CHAMFERA
 40
10.0
  9
$CHAMFERB
 40
10.0
  9
$CHAMFERC
 40
0.0
  9
$CHAMFERD
 40
0.0
  9
$SKPOLY
 70
     0
  9
$TDCREATE
 40
2451229.672632025
  9
$TDUPDATE
 40
2451229.672632025
  9
$TDINDWG
 40
0.0000000000
  9
$TDUSRTIMER
 40
0.0000000000
  9
$USRTIMER
 70
     1
  9
$ANGBASE
 50
0.0
  9
$ANGDIR
 70
     0
  9
$PDMODE
 70
     0
  9
$PDSIZE
 40
0.0
  9
$PLINEWID
 40
0.0
  9
$COORDS
 70
     1
  9
$SPLFRAME
 70
     0
  9
$SPLINETYPE
 70
     6
  9
$SPLINESEGS
 70
     8
  9
$ATTDIA
 70
     1
  9
$ATTREQ
 70
     1
  9
$HANDLING
 70
     1
  9
$HANDSEED
  5
DB
  9
$SURFTAB1
 70
     6
  9
$SURFTAB2
 70
     6
  9
$SURFTYPE
 70
     6
  9
$SURFU
 70
     6
  9
$SURFV
 70
     6
  9
$UCSNAME
  2

  9
$UCSORG
 10
0.0
 20
0.0
 30
0.0
  9
$UCSXDIR
 10
1.0
 20
0.0
 30
0.0
  9
$UCSYDIR
 10
0.0
 20
1.0
 30
0.0
  9
$PUCSNAME
  2

  9
$PUCSORG
 10
0.0
 20
0.0
 30
0.0
  9
$PUCSXDIR
 10
1.0
 20
0.0
 30
0.0
  9
$PUCSYDIR
 10
0.0
 20
1.0
 30
0.0
  9
$USERI1
 70
     0
  9
$USERI2
 70
     0
  9
$USERI3
 70
     0
  9
$USERI4
 70
     0
  9
$USERI5
 70
     0
  9
$USERR1
 40
1.0
  9
$USERR2
 40
0.0
  9
$USERR3
 40
0.0
  9
$USERR4
 40
0.0
  9
$USERR5
 40
0.0
  9
$WORLDVIEW
 70
     1
  9
$SHADEDGE
 70
     3
  9
$SHADEDIF
 70
    70
  9
$TILEMODE
 70
     1
  9
$MAXACTVP
 70
    16
  9
$PINSBASE
 10
0.0
 20
0.0
 30
0.0
  9
$PLIMCHECK
 70
     0
  9
$PEXTMIN
 10
1.000000E+20
 20
1.000000E+20
 30
1.000000E+20
  9
$PEXTMAX
 10
-1.000000E+20
 20
-1.000000E+20
 30
-1.000000E+20
  9
$PLIMMIN
 10
0.0
 20
0.0
  9
$PLIMMAX
 10
420.0
 20
297.0
  9
$UNITMODE
 70
     0
  9
$VISRETAIN
 70
     0
  9
$PLINEGEN
 70
     0
  9
$PSLTSCALE
 70
     1
  9
$TREEDEPTH
 70
  3020
  9
$PICKSTYLE
 70
     1
  9
$CMLSTYLE
  2
STANDARD
  9
$CMLJUST
 70
     0
  9
$CMLSCALE
 40
1.0
  9
$PROXYGRAPHICS
 70
     1
  9
$MEASUREMENT
 70
     0
  0
ENDSEC
  0
SECTION
  2
CLASSES
  0
CLASS
  1
DICTIONARYVAR
  2
AcDbDictionaryVar
  3
"AutoCAD"
 90
        0
280
     0
281
     0
  0
ENDSEC
  0
SECTION
  2
TABLES
  0
TABLE
  2
VPORT
  5
12
100
AcDbSymbolTable
 70
     2
  0
VPORT
  5
DA
100
AcDbSymbolTableRecord
100
AcDbViewportTableRecord
  2
*ACTIVE
 70
     0
 10
0.0
 20
0.0
 11
1.0
 21
1.0
 12
59.952602
 22
3.638253
 13
0.0
 23
0.0
 14
5.0
 24
5.0
 15
5.0
 25
5.0
 16
0.0
 26
0.0
 36
1.0
 17
0.0
 27
0.0
 37
0.0
 40
184.56383
 41
1.700368
 42
50.0
 43
0.0
 44
0.0
 50
0.0
 51
0.0
 71
     0
 72
 20000
 73
     1
 74
     3
 75
     0
 76
     0
 77
     0
 78
     0
  0
ENDTAB
  0
TABLE
  2
LTYPE
  5
D
100
AcDbSymbolTable
 70
     1
  0
LTYPE
  5
E
100
AcDbSymbolTableRecord
100
AcDbLinetypeTableRecord
  2
BYBLOCK
 70
     0
  3

 72
    65
 73
     0
 40
0.0
  0
LTYPE
  5
F
100
AcDbSymbolTableRecord
100
AcDbLinetypeTableRecord
  2
BYLAYER
 70
     0
  3

 72
    65
 73
     0
 40
0.0
  0
LTYPE
  5
5
100
AcDbSymbolTableRecord
100
AcDbLinetypeTableRecord
  2
CONTINUOUS
 70
     0
  3
Solid line
 72
    65
 73
     0
 40
0.0
  0
ENDTAB
  0
TABLE
  2
LAYER
  5
A
100
AcDbSymbolTable
 70
     2
  0
LAYER
  5
4
100
AcDbSymbolTableRecord
100
AcDbLayerTableRecord
  2
0
 70
     1
 62
     7
  6
CONTINUOUS
  0
LAYER
  5
1B
100
AcDbSymbolTableRecord
100
AcDbLayerTableRecord
  2
2D_PROFILE
 70
     0
 62
     5
  6
CONTINUOUS
  0
ENDTAB
  0
TABLE
  2
STYLE
  5
B
100
AcDbSymbolTable
 70
     1
  0
STYLE
  5
C
100
AcDbSymbolTableRecord
100
AcDbTextStyleTableRecord
  2
STANDARD
 70
     0
 40
0.0
 41
1.0
 50
0.0
 71
     0
 42
3.5
  3
ISOCP
  4

  0
ENDTAB
  0
TABLE
  2
VIEW
  5
10
100
AcDbSymbolTable
 70
     0
  0
ENDTAB
  0
TABLE
  2
UCS
  5
11
100
AcDbSymbolTable
 70
     0
  0
ENDTAB
  0
TABLE
  2
APPID
  5
14
100
AcDbSymbolTable
 70
     1
  0
APPID
  5
15
100
AcDbSymbolTableRecord
100
AcDbRegAppTableRecord
  2
ACAD
 70
     0
  0
ENDTAB
  0
TABLE
  2
DIMSTYLE
  5
16
100
AcDbSymbolTable
 70
     1
  0
DIMSTYLE
105
1D
100
AcDbSymbolTableRecord
100
AcDbDimStyleTableRecord
  2
PALETTI
 70
     0
  3

  4

  5

  6

  7

 40
0.0
 41
3.0
 42
1.0
 43
0.0
 44
1.0
 45
0.0
 46
0.0
 47
0.3
 48
0.3
140
3.0
141
0.0
142
0.0
143
25.4
144
1.0
145
0.0
146
0.7
147
0.7
 71
     0
 72
     0
 73
     0
 74
     0
 75
     0
 76
     0
 77
     1
 78
     8
170
     0
171
     2
172
     1
173
     0
174
     0
175
     0
176
   256
177
   256
178
   256
270
     2
271
     4
272
     4
273
     2
274
     2
340
C
275
     0
280
     0
281
     0
282
     0
283
     1
284
     8
285
     8
286
     8
287
     5
288
     0
  0
ENDTAB
  0
TABLE
  2
BLOCK_RECORD
  5
1
100
AcDbSymbolTable
 70
     0
  0
BLOCK_RECORD
  5
2
100
AcDbSymbolTableRecord
100
AcDbBlockTableRecord
  2
*MODEL_SPACE
  0
BLOCK_RECORD
  5
7
100
AcDbSymbolTableRecord
100
AcDbBlockTableRecord
  2
*PAPER_SPACE
  0
ENDTAB
  0
ENDSEC
  0
SECTION
  2
BLOCKS
  0
BLOCK
  5
3
100
AcDbEntity
  8
0
100
AcDbBlockBegin
  2
*MODEL_SPACE
 70
     0
 10
0.0
 20
0.0
 30
0.0
  3
*MODEL_SPACE
  1

  0
ENDBLK
  5
6
100
AcDbEntity
  8
0
100
AcDbBlockEnd
  0
BLOCK
  5
8
100
AcDbEntity
 67
     1
  8
0
100
AcDbBlockBegin
  2
*PAPER_SPACE
 70
     0
 10
0.0
 20
0.0
 30
0.0
  3
*PAPER_SPACE
  1

  0
ENDBLK
  5
9
100
AcDbEntity
 67
     1
  8
0
100
AcDbBlockEnd
  0
ENDSEC
  0
SECTION
  2
ENTITIES
  0
LINE
  5
1E
100
AcDbEntity
  8
2D_PROFILE
100
AcDbLine
 10
3.561825
 20
39.998634
 30
0.0
 11
14.918194
 21
39.800408
 31
0.0
1001
ACAD
1000
R13OBJECT
1002
{
1005
D9
1002
}
  0
ARC
  5
1F
100
AcDbEntity
  8
2D_PROFILE
100
AcDbCircle
 10
14.900742
 20
38.80056
 30
0.0
 40
1.0
100
AcDbArc
 50
0.0
 51
89.0
1001
ACAD
1000
R13OBJECT
1002
{
1005
D9
1002
}
  0
LINE
  5
20
100
AcDbEntity
  8
2D_PROFILE
100
AcDbLine
 10
15.900742
 20
36.300179
 30
0.0
 11
15.900742
 21
38.80056
 31
0.0
1001
ACAD
1000
R13OBJECT
1002
{
1005
D9
1002
}
  0
ARC
  5
21
100
AcDbEntity
  8
2D_PROFILE
100
AcDbCircle
 10
14.900742
 20
36.300179
 30
0.0
 40
1.0
100
AcDbArc
 50
269.0
 51
0.0
1001
ACAD
1000
R13OBJECT
1002
{
1005
D9
1002
}
  0
LINE
  5
22
100
AcDbEntity
  8
2D_PROFILE
100
AcDbLine
 10
11.018194
 20
35.367797
 30
0.0
 11
14.883289
 21
35.300332
 31
0.0
1001
ACAD
1000
R13OBJECT
1002
{
1005
D9
1002
}
  0
ARC
  5
23
100
AcDbEntity
  8
2D_PROFILE
100
AcDbCircle
 10
11.000742
 20
34.367949
 30
0.0
 40
1.0
100
AcDbArc
 50
89.0
 51
220.648751
1001
ACAD
1000
R13OBJECT
1002
{
1005
D9
1002
}
  0
ARC
  5
24
100
AcDbEntity
  8
2D_PROFILE
100
AcDbCircle
 10
31.131876
 20
47.450215
 30
0.0
 40
25.0
100
AcDbArc
 50
213.322254
 51
227.975248
1001
ACAD
1000
R13OBJECT
1002
{
1005
D9
1002
}
  0
ARC
  5
25
100
AcDbEntity
  8
2D_PROFILE
100
AcDbCircle
 10
17.500742
 20
31.400332
 30
0.0
 40
4.0
100
AcDbArc
 50
219.077969
 51
270.0
1001
ACAD
1000
R13OBJECT
1002
{
1005
D9
1002
}
  0
LINE
  5
26
100
AcDbEntity
  8
2D_PROFILE
100
AcDbLine
 10
17.500742
 20
27.400332
 30
0.0
 11
22.500742
 21
27.400332
 31
0.0
1001
ACAD
1000
R13OBJECT
1002
{
1005
D9
1002
}
  0
ARC
  5
27
100
AcDbEntity
  8
2D_PROFILE
100
AcDbCircle
 10
22.500742
 20
31.400332
 30
0.0
 40
4.0
100
AcDbArc
 50
270.0
 51
320.922031
1001
ACAD
1000
R13OBJECT
1002
{
1005
D9
1002
}
  0
ARC
  5
28
100
AcDbEntity
  8
2D_PROFILE
100
AcDbCircle
 10
8.869608
 20
47.450215
 30
0.0
 40
25.0
100
AcDbArc
 50
312.024752
 51
326.677746
1001
ACAD
1000
R13OBJECT
1002
{
1005
D9
1002
}
  0
ARC
  5
29
100
AcDbEntity
  8
2D_PROFILE
100
AcDbCircle
 10
29.000742
 20
34.367949
 30
0.0
 40
1.0
100
AcDbArc
 50
319.351249
 51
91.0
1001
ACAD
1000
R13OBJECT
1002
{
1005
D9
1002
}
  0
LINE
  5
2A
100
AcDbEntity
  8
2D_PROFILE
100
AcDbLine
 10
28.983289
 20
35.367797
 30
0.0
 11
25.118194
 21
35.300332
 31
0.0
1001
ACAD
1000
R13OBJECT
1002
{
1005
D9
1002
}
  0
ARC
  5
2B
100
AcDbEntity
  8
2D_PROFILE
100
AcDbCircle
 10
25.100742
 20
36.300179
 30
0.0
 40
1.0
100
AcDbArc
 50
180.0
 51
271.0
1001
ACAD
1000
R13OBJECT
1002
{
1005
D9
1002
}
  0
LINE
  5
2C
100
AcDbEntity
  8
2D_PROFILE
100
AcDbLine
 10
24.100742
 20
36.300179
 30
0.0
 11
24.100742
 21
38.80056
 31
0.0
1001
ACAD
1000
R13OBJECT
1002
{
1005
D9
1002
}
  0
ARC
  5
2D
100
AcDbEntity
  8
2D_PROFILE
100
AcDbCircle
 10
25.100742
 20
38.80056
 30
0.0
 40
1.0
100
AcDbArc
 50
91.0
 51
180.0
1001
ACAD
1000
R13OBJECT
1002
{
1005
D9
1002
}
  0
LINE
  5
2E
100
AcDbEntity
  8
2D_PROFILE
100
AcDbLine
 10
36.440201
 20
39.998644
 30
0.0
 11
25.083289
 21
39.800408
 31
0.0
1001
ACAD
1000
R13OBJECT
1002
{
1005
D9
1002
}
  0
ARC
  5
2F
100
AcDbEntity
  8
2D_PROFILE
100
AcDbCircle
 10
36.501284
 20
36.499177
 30
0.0
 40
3.5
100
AcDbArc
 50
359.0
 51
91.0
1001
ACAD
1000
R13OBJECT
1002
{
1005
D9
1002
}
  0
LINE
  5
30
100
AcDbEntity
  8
2D_PROFILE
100
AcDbLine
 10
40.000751
 20
36.438093
 30
0.0
 11
39.802516
 21
25.081182
 31
0.0
1001
ACAD
1000
R13OBJECT
1002
{
1005
D9
1002
}
  0
ARC
  5
31
100
AcDbEntity
  8
2D_PROFILE
100
AcDbCircle
 10
38.802668
 20
25.098634
 30
0.0
 40
1.0
100
AcDbArc
 50
270.0
 51
359.0
1001
ACAD
1000
R13OBJECT
1002
{
1005
D9
1002
}
  0
LINE
  5
32
100
AcDbEntity
  8
2D_PROFILE
100
AcDbLine
 10
36.302287
 20
24.098634
 30
0.0
 11
38.802668
 21
24.098634
 31
0.0
1001
ACAD
1000
R13OBJECT
1002
{
1005
D9
1002
}
  0
ARC
  5
33
100
AcDbEntity
  8
2D_PROFILE
100
AcDbCircle
 10
36.302287
 20
25.098634
 30
0.0
 40
1.0
100
AcDbArc
 50
179.0
 51
270.0
1001
ACAD
1000
R13OBJECT
1002
{
1005
D9
1002
}
  0
LINE
  5
34
100
AcDbEntity
  8
2D_PROFILE
100
AcDbLine
 10
35.369905
 20
28.981182
 30
0.0
 11
35.30244
 21
25.116086
 31
0.0
1001
ACAD
1000
R13OBJECT
1002
{
1005
D9
1002
}
  0
ARC
  5
35
100
AcDbEntity
  8
2D_PROFILE
100
AcDbCircle
 10
34.370057
 20
28.998634
 30
0.0
 40
1.0
100
AcDbArc
 50
359.0
 51
130.648751
1001
ACAD
1000
R13OBJECT
1002
{
1005
D9
1002
}
  0
ARC
  5
36
100
AcDbEntity
  8
2D_PROFILE
100
AcDbCircle
 10
47.452322
 20
8.8675
 30
0.0
 40
25.0
100
AcDbArc
 50
123.322254
 51
137.975248
1001
ACAD
1000
R13OBJECT
1002
{
1005
D9
1002
}
  0
ARC
  5
37
100
AcDbEntity
  8
2D_PROFILE
100
AcDbCircle
 10
31.40244
 20
22.498634
 30
0.0
 40
4.0
100
AcDbArc
 50
129.077969
 51
180.0
1001
ACAD
1000
R13OBJECT
1002
{
1005
D9
1002
}
  0
LINE
  5
38
100
AcDbEntity
  8
2D_PROFILE
100
AcDbLine
 10
27.40244
 20
17.498634
 30
0.0
 11
27.40244
 21
22.498634
 31
0.0
1001
ACAD
1000
R13OBJECT
1002
{
1005
D9
1002
}
  0
ARC
  5
39
100
AcDbEntity
  8
2D_PROFILE
100
AcDbCircle
 10
31.40244
 20
17.498634
 30
0.0
 40
4.0
100
AcDbArc
 50
180.0
 51
230.922031
1001
ACAD
1000
R13OBJECT
1002
{
1005
D9
1002
}
  0
ARC
  5
3A
100
AcDbEntity
  8
2D_PROFILE
100
AcDbCircle
 10
47.452322
 20
31.129768
 30
0.0
 40
25.0
100
AcDbArc
 50
222.024752
 51
236.677746
1001
ACAD
1000
R13OBJECT
1002
{
1005
D9
1002
}
  0
ARC
  5
3B
100
AcDbEntity
  8
2D_PROFILE
100
AcDbCircle
 10
34.370057
 20
10.998634
 30
0.0
 40
1.0
100
AcDbArc
 50
229.351249
 51
1.0
1001
ACAD
1000
R13OBJECT
1002
{
1005
D9
1002
}
  0
LINE
  5
3C
100
AcDbEntity
  8
2D_PROFILE
100
AcDbLine
 10
35.369905
 20
11.016086
 30
0.0
 11
35.30244
 21
14.881182
 31
0.0
1001
ACAD
1000
R13OBJECT
1002
{
1005
D9
1002
}
  0
ARC
  5
3D
100
AcDbEntity
  8
2D_PROFILE
100
AcDbCircle
 10
36.302287
 20
14.898634
 30
0.0
 40
1.0
100
AcDbArc
 50
90.0
 51
181.0
1001
ACAD
1000
R13OBJECT
1002
{
1005
D9
1002
}
  0
LINE
  5
3E
100
AcDbEntity
  8
2D_PROFILE
100
AcDbLine
 10
36.302287
 20
15.898634
 30
0.0
 11
38.802668
 21
15.898634
 31
0.0
1001
ACAD
1000
R13OBJECT
1002
{
1005
D9
1002
}
  0
ARC
  5
3F
100
AcDbEntity
  8
2D_PROFILE
100
AcDbCircle
 10
38.802668
 20
14.898634
 30
0.0
 40
1.0
100
AcDbArc
 50
1.0
 51
90.0
1001
ACAD
1000
R13OBJECT
1002
{
1005
D9
1002
}
  0
LINE
  5
40
100
AcDbEntity
  8
2D_PROFILE
100
AcDbLine
 10
40.000742
 20
3.559717
 30
0.0
 11
39.802516
 21
14.916086
 31
0.0
1001
ACAD
1000
R13OBJECT
1002
{
1005
D9
1002
}
  0
LINE
  5
41
100
AcDbEntity
  8
2D_PROFILE
100
AcDbLine
 10
40.000742
 20
3.559717
 30
0.0
 11
40.000742
 21
-3.562449
 31
0.0
1001
ACAD
1000
R13OBJECT
1002
{
1005
D9
1002
}
  0
LINE
  5
42
100
AcDbEntity
  8
2D_PROFILE
100
AcDbLine
 10
40.000742
 20
-3.562449
 30
0.0
 11
39.802516
 21
-14.918818
 31
0.0
1001
ACAD
1000
R13OBJECT
1002
{
1005
D9
1002
}
  0
ARC
  5
43
100
AcDbEntity
  8
2D_PROFILE
100
AcDbCircle
 10
38.802668
 20
-14.901366
 30
0.0
 40
1.0
100
AcDbArc
 50
270.0
 51
359.0
1001
ACAD
1000
R13OBJECT
1002
{
1005
D9
1002
}
  0
LINE
  5
44
100
AcDbEntity
  8
2D_PROFILE
100
AcDbLine
 10
36.302287
 20
-15.901366
 30
0.0
 11
38.802668
 21
-15.901366
 31
0.0
1001
ACAD
1000
R13OBJECT
1002
{
1005
D9
1002
}
  0
ARC
  5
45
100
AcDbEntity
  8
2D_PROFILE
100
AcDbCircle
 10
36.302287
 20
-14.901366
 30
0.0
 40
1.0
100
AcDbArc
 50
179.0
 51
270.0
1001
ACAD
1000
R13OBJECT
1002
{
1005
D9
1002
}
  0
LINE
  5
46
100
AcDbEntity
  8
2D_PROFILE
100
AcDbLine
 10
35.369905
 20
-11.018818
 30
0.0
 11
35.30244
 21
-14.883914
 31
0.0
1001
ACAD
1000
R13OBJECT
1002
{
1005
D9
1002
}
  0
ARC
  5
47
100
AcDbEntity
  8
2D_PROFILE
100
AcDbCircle
 10
34.370057
 20
-11.001366
 30
0.0
 40
1.0
100
AcDbArc
 50
359.0
 51
130.648751
1001
ACAD
1000
R13OBJECT
1002
{
1005
D9
1002
}
  0
ARC
  5
48
100
AcDbEntity
  8
2D_PROFILE
100
AcDbCircle
 10
47.452322
 20
-31.1325
 30
0.0
 40
25.0
100
AcDbArc
 50
123.322254
 51
137.975248
1001
ACAD
1000
R13OBJECT
1002
{
1005
D9
1002
}
  0
ARC
  5
49
100
AcDbEntity
  8
2D_PROFILE
100
AcDbCircle
 10
31.40244
 20
-17.501366
 30
0.0
 40
4.0
100
AcDbArc
 50
129.077969
 51
180.0
1001
ACAD
1000
R13OBJECT
1002
{
1005
D9
1002
}
  0
LINE
  5
4A
100
AcDbEntity
  8
2D_PROFILE
100
AcDbLine
 10
27.40244
 20
-22.501366
 30
0.0
 11
27.40244
 21
-17.501366
 31
0.0
1001
ACAD
1000
R13OBJECT
1002
{
1005
D9
1002
}
  0
ARC
  5
4B
100
AcDbEntity
  8
2D_PROFILE
100
AcDbCircle
 10
31.40244
 20
-22.501366
 30
0.0
 40
4.0
100
AcDbArc
 50
180.0
 51
230.922031
1001
ACAD
1000
R13OBJECT
1002
{
1005
D9
1002
}
  0
ARC
  5
4C
100
AcDbEntity
  8
2D_PROFILE
100
AcDbCircle
 10
47.452322
 20
-8.870232
 30
0.0
 40
25.0
100
AcDbArc
 50
222.024752
 51
236.677746
1001
ACAD
1000
R13OBJECT
1002
{
1005
D9
1002
}
  0
ARC
  5
4D
100
AcDbEntity
  8
2D_PROFILE
100
AcDbCircle
 10
34.370057
 20
-29.001366
 30
0.0
 40
1.0
100
AcDbArc
 50
229.351249
 51
1.0
1001
ACAD
1000
R13OBJECT
1002
{
1005
D9
1002
}
  0
LINE
  5
4E
100
AcDbEntity
  8
2D_PROFILE
100
AcDbLine
 10
35.369905
 20
-28.983914
 30
0.0
 11
35.30244
 21
-25.118818
 31
0.0
1001
ACAD
1000
R13OBJECT
1002
{
1005
D9
1002
}
  0
ARC
  5
4F
100
AcDbEntity
  8
2D_PROFILE
100
AcDbCircle
 10
36.302287
 20
-25.101366
 30
0.0
 40
1.0
100
AcDbArc
 50
90.0
 51
181.0
1001
ACAD
1000
R13OBJECT
1002
{
1005
D9
1002
}
  0
LINE
  5
50
100
AcDbEntity
  8
2D_PROFILE
100
AcDbLine
 10
36.302287
 20
-24.101366
 30
0.0
 11
38.802668
 21
-24.101366
 31
0.0
1001
ACAD
1000
R13OBJECT
1002
{
1005
D9
1002
}
  0
ARC
  5
51
100
AcDbEntity
  8
2D_PROFILE
100
AcDbCircle
 10
38.802668
 20
-25.101366
 30
0.0
 40
1.0
100
AcDbArc
 50
1.0
 51
90.0
1001
ACAD
1000
R13OBJECT
1002
{
1005
D9
1002
}
  0
LINE
  5
52
100
AcDbEntity
  8
2D_PROFILE
100
AcDbLine
 10
40.000751
 20
-36.440825
 30
0.0
 11
39.802516
 21
-25.083914
 31
0.0
1001
ACAD
1000
R13OBJECT
1002
{
1005
D9
1002
}
  0
ARC
  5
53
100
AcDbEntity
  8
2D_PROFILE
100
AcDbCircle
 10
36.501284
 20
-36.501909
 30
0.0
 40
3.5
100
AcDbArc
 50
269.0
 51
1.0
1001
ACAD
1000
R13OBJECT
1002
{
1005
D9
1002
}
  0
LINE
  5
54
100
AcDbEntity
  8
2D_PROFILE
100
AcDbLine
 10
36.440201
 20
-40.001375
 30
0.0
 11
25.083289
 21
-39.80314
 31
0.0
1001
ACAD
1000
R13OBJECT
1002
{
1005
D9
1002
}
  0
ARC
  5
55
100
AcDbEntity
  8
2D_PROFILE
100
AcDbCircle
 10
25.100742
 20
-38.803292
 30
0.0
 40
1.0
100
AcDbArc
 50
180.0
 51
269.0
1001
ACAD
1000
R13OBJECT
1002
{
1005
D9
1002
}
  0
LINE
  5
56
100
AcDbEntity
  8
2D_PROFILE
100
AcDbLine
 10
24.100742
 20
-36.302911
 30
0.0
 11
24.100742
 21
-38.803292
 31
0.0
1001
ACAD
1000
R13OBJECT
1002
{
1005
D9
1002
}
  0
ARC
  5
57
100
AcDbEntity
  8
2D_PROFILE
100
AcDbCircle
 10
25.100742
 20
-36.302911
 30
0.0
 40
1.0
100
AcDbArc
 50
89.0
 51
180.0
1001
ACAD
1000
R13OBJECT
1002
{
1005
D9
1002
}
  0
LINE
  5
58
100
AcDbEntity
  8
2D_PROFILE
100
AcDbLine
 10
28.983289
 20
-35.370529
 30
0.0
 11
25.118194
 21
-35.303064
 31
0.0
1001
ACAD
1000
R13OBJECT
1002
{
1005
D9
1002
}
  0
ARC
  5
59
100
AcDbEntity
  8
2D_PROFILE
100
AcDbCircle
 10
29.000742
 20
-34.370681
 30
0.0
 40
1.0
100
AcDbArc
 50
269.0
 51
40.648751
1001
ACAD
1000
R13OBJECT
1002
{
1005
D9
1002
}
  0
ARC
  5
5A
100
AcDbEntity
  8
2D_PROFILE
100
AcDbCircle
 10
8.869608
 20
-47.452946
 30
0.0
 40
25.0
100
AcDbArc
 50
33.322254
 51
47.975248
1001
ACAD
1000
R13OBJECT
1002
{
1005
D9
1002
}
  0
ARC
  5
5B
100
AcDbEntity
  8
2D_PROFILE
100
AcDbCircle
 10
22.500742
 20
-31.403064
 30
0.0
 40
4.0
100
AcDbArc
 50
39.077969
 51
90.0
1001
ACAD
1000
R13OBJECT
1002
{
1005
D9
1002
}
  0
LINE
  5
5C
100
AcDbEntity
  8
2D_PROFILE
100
AcDbLine
 10
17.500742
 20
-27.403064
 30
0.0
 11
22.500742
 21
-27.403064
 31
0.0
1001
ACAD
1000
R13OBJECT
1002
{
1005
D9
1002
}
  0
ARC
  5
5D
100
AcDbEntity
  8
2D_PROFILE
100
AcDbCircle
 10
17.500742
 20
-31.403064
 30
0.0
 40
4.0
100
AcDbArc
 50
90.0
 51
140.922031
1001
ACAD
1000
R13OBJECT
1002
{
1005
D9
1002
}
  0
ARC
  5
5E
100
AcDbEntity
  8
2D_PROFILE
100
AcDbCircle
 10
31.131876
 20
-47.452946
 30
0.0
 40
25.0
100
AcDbArc
 50
132.024752
 51
146.677746
1001
ACAD
1000
R13OBJECT
1002
{
1005
D9
1002
}
  0
ARC
  5
5F
100
AcDbEntity
  8
2D_PROFILE
100
AcDbCircle
 10
11.000742
 20
-34.370681
 30
0.0
 40
1.0
100
AcDbArc
 50
139.351249
 51
271.0
1001
ACAD
1000
R13OBJECT
1002
{
1005
D9
1002
}
  0
LINE
  5
60
100
AcDbEntity
  8
2D_PROFILE
100
AcDbLine
 10
11.018194
 20
-35.370529
 30
0.0
 11
14.883289
 21
-35.303064
 31
0.0
1001
ACAD
1000
R13OBJECT
1002
{
1005
D9
1002
}
  0
ARC
  5
61
100
AcDbEntity
  8
2D_PROFILE
100
AcDbCircle
 10
14.900742
 20
-36.302911
 30
0.0
 40
1.0
100
AcDbArc
 50
0.0
 51
91.0
1001
ACAD
1000
R13OBJECT
1002
{
1005
D9
1002
}
  0
LINE
  5
62
100
AcDbEntity
  8
2D_PROFILE
100
AcDbLine
 10
15.900742
 20
-36.302911
 30
0.0
 11
15.900742
 21
-38.803292
 31
0.0
1001
ACAD
1000
R13OBJECT
1002
{
1005
D9
1002
}
  0
ARC
  5
63
100
AcDbEntity
  8
2D_PROFILE
100
AcDbCircle
 10
14.900742
 20
-38.803292
 30
0.0
 40
1.0
100
AcDbArc
 50
271.0
 51
0.0
1001
ACAD
1000
R13OBJECT
1002
{
1005
D9
1002
}
  0
LINE
  5
64
100
AcDbEntity
  8
2D_PROFILE
100
AcDbLine
 10
3.561825
 20
-40.001366
 30
0.0
 11
14.918194
 21
-39.80314
 31
0.0
1001
ACAD
1000
R13OBJECT
1002
{
1005
D9
1002
}
  0
LINE
  5
65
100
AcDbEntity
  8
2D_PROFILE
100
AcDbLine
 10
3.561825
 20
-40.001366
 30
0.0
 11
-3.560342
 21
-40.001366
 31
0.0
1001
ACAD
1000
R13OBJECT
1002
{
1005
D9
1002
}
  0
LINE
  5
66
100
AcDbEntity
  8
2D_PROFILE
100
AcDbLine
 10
-3.560342
 20
-40.001366
 30
0.0
 11
-14.916711
 21
-39.80314
 31
0.0
1001
ACAD
1000
R13OBJECT
1002
{
1005
D9
1002
}
  0
ARC
  5
67
100
AcDbEntity
  8
2D_PROFILE
100
AcDbCircle
 10
-14.899258
 20
-38.803292
 30
0.0
 40
1.0
100
AcDbArc
 50
180.0
 51
269.0
1001
ACAD
1000
R13OBJECT
1002
{
1005
D9
1002
}
  0
LINE
  5
68
100
AcDbEntity
  8
2D_PROFILE
100
AcDbLine
 10
-15.899258
 20
-36.302911
 30
0.0
 11
-15.899258
 21
-38.803292
 31
0.0
1001
ACAD
1000
R13OBJECT
1002
{
1005
D9
1002
}
  0
ARC
  5
69
100
AcDbEntity
  8
2D_PROFILE
100
AcDbCircle
 10
-14.899258
 20
-36.302911
 30
0.0
 40
1.0
100
AcDbArc
 50
89.0
 51
180.0
1001
ACAD
1000
R13OBJECT
1002
{
1005
D9
1002
}
  0
LINE
  5
6A
100
AcDbEntity
  8
2D_PROFILE
100
AcDbLine
 10
-11.016711
 20
-35.370529
 30
0.0
 11
-14.881806
 21
-35.303064
 31
0.0
1001
ACAD
1000
R13OBJECT
1002
{
1005
D9
1002
}
  0
ARC
  5
6B
100
AcDbEntity
  8
2D_PROFILE
100
AcDbCircle
 10
-10.999258
 20
-34.370681
 30
0.0
 40
1.0
100
AcDbArc
 50
269.0
 51
40.648751
1001
ACAD
1000
R13OBJECT
1002
{
1005
D9
1002
}
  0
ARC
  5
6C
100
AcDbEntity
  8
2D_PROFILE
100
AcDbCircle
 10
-31.130392
 20
-47.452946
 30
0.0
 40
25.0
100
AcDbArc
 50
33.322254
 51
47.975248
1001
ACAD
1000
R13OBJECT
1002
{
1005
D9
1002
}
  0
ARC
  5
6D
100
AcDbEntity
  8
2D_PROFILE
100
AcDbCircle
 10
-17.499258
 20
-31.403064
 30
0.0
 40
4.0
100
AcDbArc
 50
39.077969
 51
90.0
1001
ACAD
1000
R13OBJECT
1002
{
1005
D9
1002
}
  0
LINE
  5
6E
100
AcDbEntity
  8
2D_PROFILE
100
AcDbLine
 10
-22.499258
 20
-27.403064
 30
0.0
 11
-17.499258
 21
-27.403064
 31
0.0
1001
ACAD
1000
R13OBJECT
1002
{
1005
D9
1002
}
  0
ARC
  5
6F
100
AcDbEntity
  8
2D_PROFILE
100
AcDbCircle
 10
-22.499258
 20
-31.403064
 30
0.0
 40
4.0
100
AcDbArc
 50
90.0
 51
140.922031
1001
ACAD
1000
R13OBJECT
1002
{
1005
D9
1002
}
  0
ARC
  5
70
100
AcDbEntity
  8
2D_PROFILE
100
AcDbCircle
 10
-8.868124
 20
-47.452946
 30
0.0
 40
25.0
100
AcDbArc
 50
132.024752
 51
146.677746
1001
ACAD
1000
R13OBJECT
1002
{
1005
D9
1002
}
  0
ARC
  5
71
100
AcDbEntity
  8
2D_PROFILE
100
AcDbCircle
 10
-28.999258
 20
-34.370681
 30
0.0
 40
1.0
100
AcDbArc
 50
139.351249
 51
271.0
1001
ACAD
1000
R13OBJECT
1002
{
1005
D9
1002
}
  0
LINE
  5
72
100
AcDbEntity
  8
2D_PROFILE
100
AcDbLine
 10
-28.981806
 20
-35.370529
 30
0.0
 11
-25.116711
 21
-35.303064
 31
0.0
1001
ACAD
1000
R13OBJECT
1002
{
1005
D9
1002
}
  0
ARC
  5
73
100
AcDbEntity
  8
2D_PROFILE
100
AcDbCircle
 10
-25.099258
 20
-36.302911
 30
0.0
 40
1.0
100
AcDbArc
 50
0.0
 51
91.0
1001
ACAD
1000
R13OBJECT
1002
{
1005
D9
1002
}
  0
LINE
  5
74
100
AcDbEntity
  8
2D_PROFILE
100
AcDbLine
 10
-24.099258
 20
-36.302911
 30
0.0
 11
-24.099258
 21
-38.803292
 31
0.0
1001
ACAD
1000
R13OBJECT
1002
{
1005
D9
1002
}
  0
ARC
  5
75
100
AcDbEntity
  8
2D_PROFILE
100
AcDbCircle
 10
-25.099258
 20
-38.803292
 30
0.0
 40
1.0
100
AcDbArc
 50
271.0
 51
0.0
1001
ACAD
1000
R13OBJECT
1002
{
1005
D9
1002
}
  0
LINE
  5
76
100
AcDbEntity
  8
2D_PROFILE
100
AcDbLine
 10
-36.438717
 20
-40.001375
 30
0.0
 11
-25.081806
 21
-39.80314
 31
0.0
1001
ACAD
1000
R13OBJECT
1002
{
1005
D9
1002
}
  0
ARC
  5
77
100
AcDbEntity
  8
2D_PROFILE
100
AcDbCircle
 10
-36.499801
 20
-36.501909
 30
0.0
 40
3.5
100
AcDbArc
 50
179.0
 51
271.0
1001
ACAD
1000
R13OBJECT
1002
{
1005
D9
1002
}
  0
LINE
  5
78
100
AcDbEntity
  8
2D_PROFILE
100
AcDbLine
 10
-39.999268
 20
-36.440825
 30
0.0
 11
-39.801032
 21
-25.083914
 31
0.0
1001
ACAD
1000
R13OBJECT
1002
{
1005
D9
1002
}
  0
ARC
  5
79
100
AcDbEntity
  8
2D_PROFILE
100
AcDbCircle
 10
-38.801184
 20
-25.101366
 30
0.0
 40
1.0
100
AcDbArc
 50
90.0
 51
179.0
1001
ACAD
1000
R13OBJECT
1002
{
1005
D9
1002
}
  0
LINE
  5
7A
100
AcDbEntity
  8
2D_PROFILE
100
AcDbLine
 10
-36.300803
 20
-24.101366
 30
0.0
 11
-38.801184
 21
-24.101366
 31
0.0
1001
ACAD
1000
R13OBJECT
1002
{
1005
D9
1002
}
  0
ARC
  5
7B
100
AcDbEntity
  8
2D_PROFILE
100
AcDbCircle
 10
-36.300803
 20
-25.101366
 30
0.0
 40
1.0
100
AcDbArc
 50
359.0
 51
90.0
1001
ACAD
1000
R13OBJECT
1002
{
1005
D9
1002
}
  0
LINE
  5
7C
100
AcDbEntity
  8
2D_PROFILE
100
AcDbLine
 10
-35.368421
 20
-28.983914
 30
0.0
 11
-35.300956
 21
-25.118818
 31
0.0
1001
ACAD
1000
R13OBJECT
1002
{
1005
D9
1002
}
  0
ARC
  5
7D
100
AcDbEntity
  8
2D_PROFILE
100
AcDbCircle
 10
-34.368574
 20
-29.001366
 30
0.0
 40
1.0
100
AcDbArc
 50
179.0
 51
310.648751
1001
ACAD
1000
R13OBJECT
1002
{
1005
D9
1002
}
  0
ARC
  5
7E
100
AcDbEntity
  8
2D_PROFILE
100
AcDbCircle
 10
-47.450839
 20
-8.870232
 30
0.0
 40
25.0
100
AcDbArc
 50
303.322254
 51
317.975248
1001
ACAD
1000
R13OBJECT
1002
{
1005
D9
1002
}
  0
ARC
  5
7F
100
AcDbEntity
  8
2D_PROFILE
100
AcDbCircle
 10
-31.400956
 20
-22.501366
 30
0.0
 40
4.0
100
AcDbArc
 50
309.077969
 51
360.0
1001
ACAD
1000
R13OBJECT
1002
{
1005
D9
1002
}
  0
LINE
  5
80
100
AcDbEntity
  8
2D_PROFILE
100
AcDbLine
 10
-27.400956
 20
-22.501366
 30
0.0
 11
-27.400956
 21
-17.501366
 31
0.0
1001
ACAD
1000
R13OBJECT
1002
{
1005
D9
1002
}
  0
ARC
  5
81
100
AcDbEntity
  8
2D_PROFILE
100
AcDbCircle
 10
-31.400956
 20
-17.501366
 30
0.0
 40
4.0
100
AcDbArc
 50
360.0
 51
50.922031
1001
ACAD
1000
R13OBJECT
1002
{
1005
D9
1002
}
  0
ARC
  5
82
100
AcDbEntity
  8
2D_PROFILE
100
AcDbCircle
 10
-47.450839
 20
-31.1325
 30
0.0
 40
25.0
100
AcDbArc
 50
42.024752
 51
56.677746
1001
ACAD
1000
R13OBJECT
1002
{
1005
D9
1002
}
  0
ARC
  5
83
100
AcDbEntity
  8
2D_PROFILE
100
AcDbCircle
 10
-34.368574
 20
-11.001366
 30
0.0
 40
1.0
100
AcDbArc
 50
49.351249
 51
181.0
1001
ACAD
1000
R13OBJECT
1002
{
1005
D9
1002
}
  0
LINE
  5
84
100
AcDbEntity
  8
2D_PROFILE
100
AcDbLine
 10
-35.368421
 20
-11.018818
 30
0.0
 11
-35.300956
 21
-14.883914
 31
0.0
1001
ACAD
1000
R13OBJECT
1002
{
1005
D9
1002
}
  0
ARC
  5
85
100
AcDbEntity
  8
2D_PROFILE
100
AcDbCircle
 10
-36.300803
 20
-14.901366
 30
0.0
 40
1.0
100
AcDbArc
 50
270.0
 51
1.0
1001
ACAD
1000
R13OBJECT
1002
{
1005
D9
1002
}
  0
LINE
  5
86
100
AcDbEntity
  8
2D_PROFILE
100
AcDbLine
 10
-36.300803
 20
-15.901366
 30
0.0
 11
-38.801184
 21
-15.901366
 31
0.0
1001
ACAD
1000
R13OBJECT
1002
{
1005
D9
1002
}
  0
ARC
  5
87
100
AcDbEntity
  8
2D_PROFILE
100
AcDbCircle
 10
-38.801184
 20
-14.901366
 30
0.0
 40
1.0
100
AcDbArc
 50
181.0
 51
270.0
1001
ACAD
1000
R13OBJECT
1002
{
1005
D9
1002
}
  0
LINE
  5
88
100
AcDbEntity
  8
2D_PROFILE
100
AcDbLine
 10
-39.999258
 20
-3.562449
 30
0.0
 11
-39.801032
 21
-14.918818
 31
0.0
1001
ACAD
1000
R13OBJECT
1002
{
1005
D9
1002
}
  0
LINE
  5
89
100
AcDbEntity
  8
2D_PROFILE
100
AcDbLine
 10
-39.999258
 20
3.559717
 30
0.0
 11
-39.999258
 21
-3.562449
 31
0.0
1001
ACAD
1000
R13OBJECT
1002
{
1005
D9
1002
}
  0
LINE
  5
8A
100
AcDbEntity
  8
2D_PROFILE
100
AcDbLine
 10
-39.999258
 20
3.559717
 30
0.0
 11
-39.801032
 21
14.916086
 31
0.0
1001
ACAD
1000
R13OBJECT
1002
{
1005
D9
1002
}
  0
ARC
  5
8B
100
AcDbEntity
  8
2D_PROFILE
100
AcDbCircle
 10
-38.801184
 20
14.898634
 30
0.0
 40
1.0
100
AcDbArc
 50
90.0
 51
179.0
1001
ACAD
1000
R13OBJECT
1002
{
1005
D9
1002
}
  0
LINE
  5
8C
100
AcDbEntity
  8
2D_PROFILE
100
AcDbLine
 10
-36.300803
 20
15.898634
 30
0.0
 11
-38.801184
 21
15.898634
 31
0.0
1001
ACAD
1000
R13OBJECT
1002
{
1005
D9
1002
}
  0
ARC
  5
8D
100
AcDbEntity
  8
2D_PROFILE
100
AcDbCircle
 10
-36.300803
 20
14.898634
 30
0.0
 40
1.0
100
AcDbArc
 50
359.0
 51
90.0
1001
ACAD
1000
R13OBJECT
1002
{
1005
D9
1002
}
  0
LINE
  5
8E
100
AcDbEntity
  8
2D_PROFILE
100
AcDbLine
 10
-35.368421
 20
11.016086
 30
0.0
 11
-35.300956
 21
14.881182
 31
0.0
1001
ACAD
1000
R13OBJECT
1002
{
1005
D9
1002
}
  0
ARC
  5
8F
100
AcDbEntity
  8
2D_PROFILE
100
AcDbCircle
 10
-34.368574
 20
10.998634
 30
0.0
 40
1.0
100
AcDbArc
 50
179.0
 51
310.648751
1001
ACAD
1000
R13OBJECT
1002
{
1005
D9
1002
}
  0
ARC
  5
90
100
AcDbEntity
  8
2D_PROFILE
100
AcDbCircle
 10
-47.450839
 20
31.129768
 30
0.0
 40
25.0
100
AcDbArc
 50
303.322254
 51
317.975248
1001
ACAD
1000
R13OBJECT
1002
{
1005
D9
1002
}
  0
ARC
  5
91
100
AcDbEntity
  8
2D_PROFILE
100
AcDbCircle
 10
-31.400956
 20
17.498634
 30
0.0
 40
4.0
100
AcDbArc
 50
309.077969
 51
0.0
1001
ACAD
1000
R13OBJECT
1002
{
1005
D9
1002
}
  0
LINE
  5
92
100
AcDbEntity
  8
2D_PROFILE
100
AcDbLine
 10
-27.400956
 20
17.498634
 30
0.0
 11
-27.400956
 21
22.498634
 31
0.0
1001
ACAD
1000
R13OBJECT
1002
{
1005
D9
1002
}
  0
ARC
  5
93
100
AcDbEntity
  8
2D_PROFILE
100
AcDbCircle
 10
-31.400956
 20
22.498634
 30
0.0
 40
4.0
100
AcDbArc
 50
360.0
 51
50.922031
1001
ACAD
1000
R13OBJECT
1002
{
1005
D9
1002
}
  0
ARC
  5
94
100
AcDbEntity
  8
2D_PROFILE
100
AcDbCircle
 10
-47.450839
 20
8.8675
 30
0.0
 40
25.0
100
AcDbArc
 50
42.024752
 51
56.677746
1001
ACAD
1000
R13OBJECT
1002
{
1005
D9
1002
}
  0
ARC
  5
95
100
AcDbEntity
  8
2D_PROFILE
100
AcDbCircle
 10
-34.368574
 20
28.998634
 30
0.0
 40
1.0
100
AcDbArc
 50
49.351249
 51
181.0
1001
ACAD
1000
R13OBJECT
1002
{
1005
D9
1002
}
  0
LINE
  5
96
100
AcDbEntity
  8
2D_PROFILE
100
AcDbLine
 10
-35.368421
 20
28.981182
 30
0.0
 11
-35.300956
 21
25.116086
 31
0.0
1001
ACAD
1000
R13OBJECT
1002
{
1005
D9
1002
}
  0
ARC
  5
97
100
AcDbEntity
  8
2D_PROFILE
100
AcDbCircle
 10
-36.300803
 20
25.098634
 30
0.0
 40
1.0
100
AcDbArc
 50
270.0
 51
1.0
1001
ACAD
1000
R13OBJECT
1002
{
1005
D9
1002
}
  0
LINE
  5
98
100
AcDbEntity
  8
2D_PROFILE
100
AcDbLine
 10
-36.300803
 20
24.098634
 30
0.0
 11
-38.801184
 21
24.098634
 31
0.0
1001
ACAD
1000
R13OBJECT
1002
{
1005
D9
1002
}
  0
ARC
  5
99
100
AcDbEntity
  8
2D_PROFILE
100
AcDbCircle
 10
-38.801184
 20
25.098634
 30
0.0
 40
1.0
100
AcDbArc
 50
181.0
 51
270.0
1001
ACAD
1000
R13OBJECT
1002
{
1005
D9
1002
}
  0
LINE
  5
9A
100
AcDbEntity
  8
2D_PROFILE
100
AcDbLine
 10
-39.999268
 20
36.438093
 30
0.0
 11
-39.801032
 21
25.081182
 31
0.0
1001
ACAD
1000
R13OBJECT
1002
{
1005
D9
1002
}
  0
ARC
  5
9B
100
AcDbEntity
  8
2D_PROFILE
100
AcDbCircle
 10
-36.499801
 20
36.499177
 30
0.0
 40
3.5
100
AcDbArc
 50
89.0
 51
181.0
1001
ACAD
1000
R13OBJECT
1002
{
1005
D9
1002
}
  0
LINE
  5
9C
100
AcDbEntity
  8
2D_PROFILE
100
AcDbLine
 10
-36.438717
 20
39.998644
 30
0.0
 11
-25.081806
 21
39.800408
 31
0.0
1001
ACAD
1000
R13OBJECT
1002
{
1005
D9
1002
}
  0
ARC
  5
9D
100
AcDbEntity
  8
2D_PROFILE
100
AcDbCircle
 10
-25.099258
 20
38.80056
 30
0.0
 40
1.0
100
AcDbArc
 50
0.0
 51
89.0
1001
ACAD
1000
R13OBJECT
1002
{
1005
D9
1002
}
  0
LINE
  5
9E
100
AcDbEntity
  8
2D_PROFILE
100
AcDbLine
 10
-24.099258
 20
36.300179
 30
0.0
 11
-24.099258
 21
38.80056
 31
0.0
1001
ACAD
1000
R13OBJECT
1002
{
1005
D9
1002
}
  0
ARC
  5
9F
100
AcDbEntity
  8
2D_PROFILE
100
AcDbCircle
 10
-25.099258
 20
36.300179
 30
0.0
 40
1.0
100
AcDbArc
 50
269.0
 51
0.0
1001
ACAD
1000
R13OBJECT
1002
{
1005
D9
1002
}
  0
LINE
  5
A0
100
AcDbEntity
  8
2D_PROFILE
100
AcDbLine
 10
-28.981806
 20
35.367797
 30
0.0
 11
-25.116711
 21
35.300332
 31
0.0
1001
ACAD
1000
R13OBJECT
1002
{
1005
D9
1002
}
  0
ARC
  5
A1
100
AcDbEntity
  8
2D_PROFILE
100
AcDbCircle
 10
-28.999258
 20
34.367949
 30
0.0
 40
1.0
100
AcDbArc
 50
89.0
 51
220.648751
1001
ACAD
1000
R13OBJECT
1002
{
1005
D9
1002
}
  0
ARC
  5
A2
100
AcDbEntity
  8
2D_PROFILE
100
AcDbCircle
 10
-8.868124
 20
47.450215
 30
0.0
 40
25.0
100
AcDbArc
 50
213.322254
 51
227.975248
1001
ACAD
1000
R13OBJECT
1002
{
1005
D9
1002
}
  0
ARC
  5
A3
100
AcDbEntity
  8
2D_PROFILE
100
AcDbCircle
 10
-22.499258
 20
31.400332
 30
0.0
 40
4.0
100
AcDbArc
 50
219.077969
 51
270.0
1001
ACAD
1000
R13OBJECT
1002
{
1005
D9
1002
}
  0
LINE
  5
A4
100
AcDbEntity
  8
2D_PROFILE
100
AcDbLine
 10
-22.499258
 20
27.400332
 30
0.0
 11
-17.499258
 21
27.400332
 31
0.0
1001
ACAD
1000
R13OBJECT
1002
{
1005
D9
1002
}
  0
ARC
  5
A5
100
AcDbEntity
  8
2D_PROFILE
100
AcDbCircle
 10
-17.499258
 20
31.400332
 30
0.0
 40
4.0
100
AcDbArc
 50
270.0
 51
320.922031
1001
ACAD
1000
R13OBJECT
1002
{
1005
D9
1002
}
  0
ARC
  5
A6
100
AcDbEntity
  8
2D_PROFILE
100
AcDbCircle
 10
-31.130392
 20
47.450215
 30
0.0
 40
25.0
100
AcDbArc
 50
312.024752
 51
326.677746
1001
ACAD
1000
R13OBJECT
1002
{
1005
D9
1002
}
  0
ARC
  5
A7
100
AcDbEntity
  8
2D_PROFILE
100
AcDbCircle
 10
-10.999258
 20
34.367949
 30
0.0
 40
1.0
100
AcDbArc
 50
319.351249
 51
91.0
1001
ACAD
1000
R13OBJECT
1002
{
1005
D9
1002
}
  0
LINE
  5
A8
100
AcDbEntity
  8
2D_PROFILE
100
AcDbLine
 10
-11.016711
 20
35.367797
 30
0.0
 11
-14.881806
 21
35.300332
 31
0.0
1001
ACAD
1000
R13OBJECT
1002
{
1005
D9
1002
}
  0
ARC
  5
A9
100
AcDbEntity
  8
2D_PROFILE
100
AcDbCircle
 10
-14.899258
 20
36.300179
 30
0.0
 40
1.0
100
AcDbArc
 50
180.0
 51
271.0
1001
ACAD
1000
R13OBJECT
1002
{
1005
D9
1002
}
  0
LINE
  5
AA
100
AcDbEntity
  8
2D_PROFILE
100
AcDbLine
 10
-15.899258
 20
36.300179
 30
0.0
 11
-15.899258
 21
38.80056
 31
0.0
1001
ACAD
1000
R13OBJECT
1002
{
1005
D9
1002
}
  0
ARC
  5
AB
100
AcDbEntity
  8
2D_PROFILE
100
AcDbCircle
 10
-14.899258
 20
38.80056
 30
0.0
 40
1.0
100
AcDbArc
 50
91.0
 51
180.0
1001
ACAD
1000
R13OBJECT
1002
{
1005
D9
1002
}
  0
LINE
  5
AC
100
AcDbEntity
  8
2D_PROFILE
100
AcDbLine
 10
-3.560342
 20
39.998634
 30
0.0
 11
-14.916711
 21
39.800408
 31
0.0
1001
ACAD
1000
R13OBJECT
1002
{
1005
D9
1002
}
  0
LINE
  5
AD
100
AcDbEntity
  8
2D_PROFILE
100
AcDbLine
 10
-3.560342
 20
39.998634
 30
0.0
 11
3.561825
 21
39.998634
 31
0.0
1001
ACAD
1000
R13OBJECT
1002
{
1005
D9
1002
}
  0
CIRCLE
  5
AE
100
AcDbEntity
  8
2D_PROFILE
100
AcDbCircle
 10
-35.000742
 20
34.998634
 30
0.0
 40
2.0
210
0.0
220
0.0
230
-1.0
1001
ACAD
1000
R13OBJECT
1002
{
1005
D9
1002
}
  0
CIRCLE
  5
AF
100
AcDbEntity
  8
2D_PROFILE
100
AcDbCircle
 10
19.999258
 20
19.998634
 30
0.0
 40
3.4
210
0.0
220
0.0
230
-1.0
1001
ACAD
1000
R13OBJECT
1002
{
1005
D9
1002
}
  0
CIRCLE
  5
B0
100
AcDbEntity
  8
2D_PROFILE
100
AcDbCircle
 10
-20.000742
 20
19.998634
 30
0.0
 40
3.4
210
0.0
220
0.0
230
-1.0
1001
ACAD
1000
R13OBJECT
1002
{
1005
D9
1002
}
  0
ARC
  5
B1
100
AcDbEntity
  8
2D_PROFILE
100
AcDbCircle
 10
25.268168
 20
5.998634
 30
0.0
 40
3.0
210
0.0
220
0.0
230
-1.0
100
AcDbArc
 50
45.0
 51
90.0
1001
ACAD
1000
R13OBJECT
1002
{
1005
D9
1002
}
  0
LINE
  5
B2
100
AcDbEntity
  8
2D_PROFILE
100
AcDbLine
 10
-29.814174
 20
5.695269
 30
0.0
 11
-27.389489
 21
8.119954
 31
0.0
1001
ACAD
1000
R13OBJECT
1002
{
1005
D9
1002
}
  0
ARC
  5
B3
100
AcDbEntity
  8
2D_PROFILE
100
AcDbCircle
 10
25.249258
 20
-0.001356
 30
0.0
 40
7.3
210
0.0
220
0.0
230
-1.0
100
AcDbArc
 50
308.70744
 51
51.293519
1001
ACAD
1000
R13OBJECT
1002
{
1005
D9
1002
}
  0
LINE
  5
B4
100
AcDbEntity
  8
2D_PROFILE
100
AcDbLine
 10
-27.389489
 20
-8.122686
 30
0.0
 11
-29.814269
 21
-5.697906
 31
0.0
1001
ACAD
1000
R13OBJECT
1002
{
1005
D9
1002
}
  0
ARC
  5
B5
100
AcDbEntity
  8
2D_PROFILE
100
AcDbCircle
 10
25.268168
 20
-6.001366
 30
0.0
 40
3.0
210
0.0
220
0.0
230
-1.0
100
AcDbArc
 50
270.0
 51
315.0
1001
ACAD
1000
R13OBJECT
1002
{
1005
D9
1002
}
  0
LINE
  5
B6
100
AcDbEntity
  8
2D_PROFILE
100
AcDbLine
 10
25.269652
 20
-9.001366
 30
0.0
 11
-25.268168
 21
-9.001366
 31
0.0
1001
ACAD
1000
R13OBJECT
1002
{
1005
D9
1002
}
  0
ARC
  5
B7
100
AcDbEntity
  8
2D_PROFILE
100
AcDbCircle
 10
-25.269652
 20
-6.001366
 30
0.0
 40
3.0
210
0.0
220
0.0
230
-1.0
100
AcDbArc
 50
225.0
 51
270.0
1001
ACAD
1000
R13OBJECT
1002
{
1005
D9
1002
}
  0
LINE
  5
B8
100
AcDbEntity
  8
2D_PROFILE
100
AcDbLine
 10
29.815753
 20
-5.697906
 30
0.0
 11
27.390972
 21
-8.122686
 31
0.0
1001
ACAD
1000
R13OBJECT
1002
{
1005
D9
1002
}
  0
ARC
  5
B9
100
AcDbEntity
  8
2D_PROFILE
100
AcDbCircle
 10
-25.250742
 20
-0.001356
 30
0.0
 40
7.3
210
0.0
220
0.0
230
-1.0
100
AcDbArc
 50
128.706481
 51
231.29256
1001
ACAD
1000
R13OBJECT
1002
{
1005
D9
1002
}
  0
LINE
  5
BA
100
AcDbEntity
  8
2D_PROFILE
100
AcDbLine
 10
27.390972
 20
8.119954
 30
0.0
 11
29.815658
 21
5.695269
 31
0.0
1001
ACAD
1000
R13OBJECT
1002
{
1005
D9
1002
}
  0
ARC
  5
BB
100
AcDbEntity
  8
2D_PROFILE
100
AcDbCircle
 10
-25.269652
 20
5.998634
 30
0.0
 40
3.0
210
0.0
220
0.0
230
-1.0
100
AcDbArc
 50
90.0
 51
135.0
1001
ACAD
1000
R13OBJECT
1002
{
1005
D9
1002
}
  0
LINE
  5
BC
100
AcDbEntity
  8
2D_PROFILE
100
AcDbLine
 10
-25.268168
 20
8.998634
 30
0.0
 11
25.269652
 21
8.998634
 31
0.0
1001
ACAD
1000
R13OBJECT
1002
{
1005
D9
1002
}
  0
LINE
  5
BD
100
AcDbEntity
  8
2D_PROFILE
100
AcDbLine
 10
12.309949
 20
-23.664149
 30
0.0
 11
6.324658
 21
-31.907795
 31
0.0
1001
ACAD
1000
R13OBJECT
1002
{
1005
D9
1002
}
  0
ARC
  5
BE
100
AcDbEntity
  8
2D_PROFILE
100
AcDbCircle
 10
-11.500742
 20
-23.076625
 30
0.0
 40
1.0
210
0.0
220
0.0
230
-1.0
100
AcDbArc
 50
180.0
 51
215.981488
1001
ACAD
1000
R13OBJECT
1002
{
1005
D9
1002
}
  0
LINE
  5
BF
100
AcDbEntity
  8
2D_PROFILE
100
AcDbLine
 10
12.500742
 20
-12.001366
 30
0.0
 11
12.500742
 21
-23.076625
 31
0.0
1001
ACAD
1000
R13OBJECT
1002
{
1005
D9
1002
}
  0
ARC
  5
C0
100
AcDbEntity
  8
2D_PROFILE
100
AcDbCircle
 10
-11.500742
 20
-12.001366
 30
0.0
 40
1.0
210
0.0
220
0.0
230
-1.0
100
AcDbArc
 50
90.0
 51
180.0
1001
ACAD
1000
R13OBJECT
1002
{
1005
D9
1002
}
  0
LINE
  5
C1
100
AcDbEntity
  8
2D_PROFILE
100
AcDbLine
 10
-11.499258
 20
-11.001366
 30
0.0
 11
11.500742
 21
-11.001366
 31
0.0
1001
ACAD
1000
R13OBJECT
1002
{
1005
D9
1002
}
  0
ARC
  5
C2
100
AcDbEntity
  8
2D_PROFILE
100
AcDbCircle
 10
11.499258
 20
-12.001366
 30
0.0
 40
1.0
210
0.0
220
0.0
230
-1.0
100
AcDbArc
 50
0.0
 51
90.0
1001
ACAD
1000
R13OBJECT
1002
{
1005
D9
1002
}
  0
LINE
  5
C3
100
AcDbEntity
  8
2D_PROFILE
100
AcDbLine
 10
-12.499258
 20
-22.102402
 30
0.0
 11
-12.499258
 21
-12.001366
 31
0.0
1001
ACAD
1000
R13OBJECT
1002
{
1005
D9
1002
}
  0
ARC
  5
C4
100
AcDbEntity
  8
2D_PROFILE
100
AcDbCircle
 10
8.499258
 20
-22.102402
 30
0.0
 40
4.0
210
0.0
220
0.0
230
-1.0
100
AcDbArc
 50
324.018512
 51
0.0
1001
ACAD
1000
R13OBJECT
1002
{
1005
D9
1002
}
  0
LINE
  5
C5
100
AcDbEntity
  8
2D_PROFILE
100
AcDbLine
 10
-6.323174
 20
-31.907795
 30
0.0
 11
-11.736086
 21
-24.452497
 31
0.0
1001
ACAD
1000
R13OBJECT
1002
{
1005
D9
1002
}
  0
ARC
  5
C6
100
AcDbEntity
  8
2D_PROFILE
100
AcDbCircle
 10
0.254123
 20
-27.501366
 30
0.0
 40
7.5
210
0.0
220
0.0
230
-1.0
100
AcDbArc
 50
270.0
 51
324.018512
1001
ACAD
1000
R13OBJECT
1002
{
1005
D9
1002
}
  0
LINE
  5
C7
100
AcDbEntity
  8
2D_PROFILE
100
AcDbLine
 10
0.255606
 20
-35.001366
 30
0.0
 11
-0.254123
 21
-35.001366
 31
0.0
1001
ACAD
1000
R13OBJECT
1002
{
1005
D9
1002
}
  0
ARC
  5
C8
100
AcDbEntity
  8
2D_PROFILE
100
AcDbCircle
 10
-0.255606
 20
-27.501366
 30
0.0
 40
7.5
210
0.0
220
0.0
230
-1.0
100
AcDbArc
 50
215.981488
 51
270.0
1001
ACAD
1000
R13OBJECT
1002
{
1005
D9
1002
}
  0
CIRCLE
  5
C9
100
AcDbEntity
  8
2D_PROFILE
100
AcDbCircle
 10
-35.000742
 20
-35.001366
 30
0.0
 40
2.0
210
0.0
220
0.0
230
-1.0
1001
ACAD
1000
R13OBJECT
1002
{
1005
D9
1002
}
  0
CIRCLE
  5
CA
100
AcDbEntity
  8
2D_PROFILE
100
AcDbCircle
 10
-20.000742
 20
-20.001366
 30
0.0
 40
3.4
210
0.0
220
0.0
230
-1.0
1001
ACAD
1000
R13OBJECT
1002
{
1005
D9
1002
}
  0
CIRCLE
  5
CB
100
AcDbEntity
  8
2D_PROFILE
100
AcDbCircle
 10
19.999258
 20
-20.001366
 30
0.0
 40
3.4
210
0.0
220
0.0
230
-1.0
1001
ACAD
1000
R13OBJECT
1002
{
1005
D9
1002
}
  0
CIRCLE
  5
CC
100
AcDbEntity
  8
2D_PROFILE
100
AcDbCircle
 10
34.999258
 20
-35.001366
 30
0.0
 40
2.0
210
0.0
220
0.0
230
-1.0
1001
ACAD
1000
R13OBJECT
1002
{
1005
D9
1002
}
  0
CIRCLE
  5
CD
100
AcDbEntity
  8
2D_PROFILE
100
AcDbCircle
 10
34.999258
 20
34.998634
 30
0.0
 40
2.0
210
0.0
220
0.0
230
-1.0
1001
ACAD
1000
R13OBJECT
1002
{
1005
D9
1002
}
  0
LINE
  5
CE
100
AcDbEntity
  8
2D_PROFILE
100
AcDbLine
 10
-11.736086
 20
24.449784
 30
0.0
 11
-6.323174
 21
31.905082
 31
0.0
1001
ACAD
1000
R13OBJECT
1002
{
1005
D9
1002
}
  0
ARC
  5
CF
100
AcDbEntity
  8
2D_PROFILE
100
AcDbCircle
 10
8.499258
 20
22.099689
 30
0.0
 40
4.0
210
0.0
220
0.0
230
-1.0
100
AcDbArc
 50
360.0
 51
35.981488
1001
ACAD
1000
R13OBJECT
1002
{
1005
D9
1002
}
  0
LINE
  5
D0
100
AcDbEntity
  8
2D_PROFILE
100
AcDbLine
 10
-12.499258
 20
11.998653
 30
0.0
 11
-12.499258
 21
22.099689
 31
0.0
1001
ACAD
1000
R13OBJECT
1002
{
1005
D9
1002
}
  0
ARC
  5
D1
100
AcDbEntity
  8
2D_PROFILE
100
AcDbCircle
 10
11.499258
 20
11.998653
 30
0.0
 40
1.0
210
0.0
220
0.0
230
-1.0
100
AcDbArc
 50
270.0
 51
360.0
1001
ACAD
1000
R13OBJECT
1002
{
1005
D9
1002
}
  0
LINE
  5
D2
100
AcDbEntity
  8
2D_PROFILE
100
AcDbLine
 10
11.500742
 20
10.998653
 30
0.0
 11
-11.499258
 21
10.998653
 31
0.0
1001
ACAD
1000
R13OBJECT
1002
{
1005
D9
1002
}
  0
ARC
  5
D3
100
AcDbEntity
  8
2D_PROFILE
100
AcDbCircle
 10
-11.500742
 20
11.998653
 30
0.0
 40
1.0
210
0.0
220
0.0
230
-1.0
100
AcDbArc
 50
180.0
 51
270.0
1001
ACAD
1000
R13OBJECT
1002
{
1005
D9
1002
}
  0
LINE
  5
D4
100
AcDbEntity
  8
2D_PROFILE
100
AcDbLine
 10
12.500742
 20
22.099689
 30
0.0
 11
12.500742
 21
11.998653
 31
0.0
1001
ACAD
1000
R13OBJECT
1002
{
1005
D9
1002
}
  0
ARC
  5
D5
100
AcDbEntity
  8
2D_PROFILE
100
AcDbCircle
 10
-8.500742
 20
22.099689
 30
0.0
 40
4.0
210
0.0
220
0.0
230
-1.0
100
AcDbArc
 50
144.018512
 51
180.0
1001
ACAD
1000
R13OBJECT
1002
{
1005
D9
1002
}
  0
LINE
  5
D6
100
AcDbEntity
  8
2D_PROFILE
100
AcDbLine
 10
6.324658
 20
31.905082
 30
0.0
 11
11.737569
 21
24.449784
 31
0.0
1001
ACAD
1000
R13OBJECT
1002
{
1005
D9
1002
}
  0
ARC
  5
D7
100
AcDbEntity
  8
2D_PROFILE
100
AcDbCircle
 10
-0.255606
 20
27.498653
 30
0.0
 40
7.5
210
0.0
220
0.0
230
-1.0
100
AcDbArc
 50
90.0
 51
144.018512
1001
ACAD
1000
R13OBJECT
1002
{
1005
D9
1002
}
  0
LINE
  5
D8
100
AcDbEntity
  8
2D_PROFILE
100
AcDbLine
 10
-0.254123
 20
34.998653
 30
0.0
 11
0.255606
 21
34.998653
 31
0.0
1001
ACAD
1000
R13OBJECT
1002
{
1005
D9
1002
}
  0
ARC
  5
D9
100
AcDbEntity
  8
2D_PROFILE
100
AcDbCircle
 10
0.254123
 20
27.498653
 30
0.0
 40
7.5
210
0.0
220
0.0
230
-1.0
100
AcDbArc
 50
35.981488
 51
90.0
  0
ENDSEC
  0
SECTION
  2
OBJECTS
  0
DICTIONARY
  5
1A
100
AcDbDictionary
  3
ACAD_GROUP
350
18
  3
ACAD_MLINESTYLE
350
19
  0
DICTIONARY
  5
18
102
{ACAD_REACTORS
330
1A
102
}
100
AcDbDictionary
  0
DICTIONARY
  5
19
102
{ACAD_REACTORS
330
1A
102
}
100
AcDbDictionary
  3
STANDARD
350
1C
  0
MLINESTYLE
  5
1C
102
{ACAD_REACTORS
330
19
102
}
100
AcDbMlineStyle
  2
STANDARD
 70
     0
  3

 62
   256
 51
90.0
 52
90.0
 71
     2
 49
0.5
 62
   256
  6
BYLAYER
 49
-0.5
 62
   256
  6
BYLAYER
  0
ENDSEC
  0
EOF
