                                                                        S      1
,,7HSL8603S,27HNo Iges File Name specified,23HAutoDesk Inventor R11.0,  G      1
37HAutoDesk Inventor Iges Exporter R11.0,32,38,6,99,15,7HSL8603S,1.0D0, G      2
2,2HMM,1,.08D0,15H20070910.120526,.01D0,10000.0D0,19HNo Author specifiedG      3
,25HNo Organization specified,11,0,,33HNo Application Protocol specifiedG      4
;                                                                       G      5
     128       1       0       0       0       0       0       000010000D      1
     128       0       0      34       0                               0D      2
     502      35       0       0       0       0       0       000010000D      3
     502       0       0       7       1                               0D      4
     100      42       0       0       0       0       7       000010000D      5
     100       0       0       2       0                               0D      6
     124      44       0       0       0       0       0       000000000D      7
     124       0       0       2       0                               0D      8
     504      46       0       0       0       0       0       000010001D      9
     504       0       0       4       1                               0D     10
     100      50       0       0       0       0      13       000010000D     11
     100       0       0       2       0                               0D     12
     124      52       0       0       0       0       0       000000000D     13
     124       0       0       2       0                               0D     14
     100      54       0       0       0       0      17       000010000D     15
     100       0       0       2       0                               0D     16
     124      56       0       0       0       0       0       000000000D     17
     124       0       0       2       0                               0D     18
     100      58       0       0       0       0      17       000010000D     19
     100       0       0       1       0                               0D     20
     508      59       0       0       0       0       0       000010000D     21
     508       0       0       1       1                               0D     22
     510      60       0       0       0       0       0       000010001D     23
     510       0       0       1       1                               0D     24
     116      61       0       0       0       0       0       000010000D     25
     116       0       0       1       0                               0D     26
     123      62       0       0       0       0       0       000010200D     27
     123       0       0       1       0                               0D     28
     192      63       0       0       0       0       0       000010000D     29
     192       0       0       1       1                               0D     30
     123      64       0       0       0       0       0       000010200D     31
     123       0       0       1       0                               0D     32
     110      65       0       0       0       0       0       000010000D     33
     110       0       0       1       0                               0D     34
     100      66       0       0       0       0      17       000010000D     35
     100       0       0       2       0                               0D     36
     110      68       0       0       0       0       0       000010000D     37
     110       0       0       2       0                               0D     38
     100      70       0       0       0       0      41       000010000D     39
     100       0       0       2       0                               0D     40
     124      72       0       0       0       0       0       000000000D     41
     124       0       0       2       0                               0D     42
     508      74       0       0       0       0       0       000010000D     43
     508       0       0       1       1                               0D     44
     510      75       0       0       0       0       0       000010001D     45
     510       0       0       1       1                               0D     46
     116      76       0       0       0       0       0       000010000D     47
     116       0       0       1       0                               0D     48
     123      77       0       0       0       0       0       000010200D     49
     123       0       0       1       0                               0D     50
     192      78       0       0       0       0       0       000010000D     51
     192       0       0       1       1                               0D     52
     123      79       0       0       0       0       0       000010200D     53
     123       0       0       1       0                               0D     54
     110      80       0       0       0       0       0       000010000D     55
     110       0       0       1       0                               0D     56
     100      81       0       0       0       0      59       000010000D     57
     100       0       0       1       0                               0D     58
     124      82       0       0       0       0       0       000000000D     59
     124       0       0       2       0                               0D     60
     110      84       0       0       0       0       0       000010000D     61
     110       0       0       2       0                               0D     62
     100      86       0       0       0       0      41       000010000D     63
     100       0       0       1       0                               0D     64
     508      87       0       0       0       0       0       000010000D     65
     508       0       0       1       1                               0D     66
     510      88       0       0       0       0       0       000010001D     67
     510       0       0       1       1                               0D     68
     116      89       0       0       0       0       0       000010000D     69
     116       0       0       1       0                               0D     70
     123      90       0       0       0       0       0       000010200D     71
     123       0       0       1       0                               0D     72
     192      91       0       0       0       0       0       000010000D     73
     192       0       0       1       1                               0D     74
     123      92       0       0       0       0       0       000010200D     75
     123       0       0       1       0                               0D     76
     100      93       0       0       0       0      41       000010000D     77
     100       0       0       2       0                               0D     78
     100      95       0       0       0       0      59       000010000D     79
     100       0       0       2       0                               0D     80
     508      97       0       0       0       0       0       000010000D     81
     508       0       0       1       1                               0D     82
     510      98       0       0       0       0       0       000010001D     83
     510       0       0       1       1                               0D     84
     116      99       0       0       0       0       0       000010000D     85
     116       0       0       1       0                               0D     86
     123     100       0       0       0       0       0       000010200D     87
     123       0       0       1       0                               0D     88
     190     101       0       0       0       0       0       000010000D     89
     190       0       0       1       1                               0D     90
     123     102       0       0       0       0       0       000010200D     91
     123       0       0       1       0                               0D     92
     508     103       0       0       0       0       0       000010000D     93
     508       0       0       1       1                               0D     94
     510     104       0       0       0       0       0       000010001D     95
     510       0       0       1       1                               0D     96
     116     105       0       0       0       0       0       000010000D     97
     116       0       0       1       0                               0D     98
     123     106       0       0       0       0       0       000010200D     99
     123       0       0       1       0                               0D    100
     192     107       0       0       0       0       0       000010000D    101
     192       0       0       1       1                               0D    102
     123     108       0       0       0       0       0       000010200D    103
     123       0       0       1       0                               0D    104
     100     109       0       0       0       0      41       000010000D    105
     100       0       0       1       0                               0D    106
     100     110       0       0       0       0      17       000010000D    107
     100       0       0       1       0                               0D    108
     508     111       0       0       0       0       0       000010000D    109
     508       0       0       1       1                               0D    110
     510     112       0       0       0       0       0       000010001D    111
     510       0       0       1       1                               0D    112
     116     113       0       0       0       0       0       000010000D    113
     116       0       0       1       0                               0D    114
     123     114       0       0       0       0       0       000010200D    115
     123       0       0       1       0                               0D    116
     190     115       0       0       0       0       0       000010000D    117
     190       0       0       1       1                               0D    118
     123     116       0       0       0       0       0       000010200D    119
     123       0       0       1       0                               0D    120
     508     117       0       0       0       0       0       000010000D    121
     508       0       0       1       1                               0D    122
     100     118       0       0       0       0      17       000010000D    123
     100       0       0       2       0                               0D    124
     508     120       0       0       0       0       0       000010000D    125
     508       0       0       1       1                               0D    126
     510     121       0       0       0       0       0       000010001D    127
     510       0       0       1       1                               0D    128
     128     122       0       0       0       0       0       000010000D    129
     128       0       0      34       0                               0D    130
     508     156       0       0       0       0       0       000010000D    131
     508       0       0       1       1                               0D    132
     510     157       0       0       0       0       0       000010001D    133
     510       0       0       1       1                               0D    134
     116     158       0       0       0       0       0       000010000D    135
     116       0       0       1       0                               0D    136
     123     159       0       0       0       0       0       000010200D    137
     123       0       0       1       0                               0D    138
     190     160       0       0       0       0       0       000010000D    139
     190       0       0       1       1                               0D    140
     123     161       0       0       0       0       0       000010200D    141
     123       0       0       1       0                               0D    142
     508     162       0       0       0       0       0       000010000D    143
     508       0       0       1       1                               0D    144
     508     163       0       0       0       0       0       000010000D    145
     508       0       0       1       1                               0D    146
     510     164       0       0       0       0       0       000010001D    147
     510       0       0       1       1                               0D    148
     514     165       0       0       0       0       0       000010000D    149
     514       0       0       1       1                               0D    150
     186     166       0       0       1       0       0       000000000D    151
     186       0    -153       1       0                               0D    152
     314     167       0       0       0       0       0       000000200D    153
     314       0       0       2       0                               0D    154
128,2,8,2,2,0,1,0,0,0,-3.66087814092489D-2,-3.66087814092489D-2,       1P      1
-3.66087814092489D-2,.866031177543017D0,.866031177543017D0,            1P      2
.866031177543017D0,0.0D0,0.0D0,0.0D0,1.5707963267949D0,                1P      3
1.5707963267949D0,3.14159265358979D0,3.14159265358979D0,               1P      4
4.71238898038469D0,4.71238898038469D0,6.28318530717959D0,              1P      5
6.28318530717959D0,6.28318530717959D0,1.0D0,.899872172496544D0,        1P      6
1.0D0,.707106781186548D0,.636305715373377D0,.707106781186548D0,        1P      7
1.0D0,.899872172496544D0,1.0D0,.707106781186548D0,                     1P      8
.636305715373377D0,.707106781186548D0,1.0D0,.899872172496544D0,        1P      9
1.0D0,.707106781186548D0,.636305715373377D0,.707106781186548D0,        1P     10
1.0D0,.899872172496544D0,1.0D0,.707106781186548D0,                     1P     11
.636305715373377D0,.707106781186548D0,1.0D0,.899872172496544D0,        1P     12
1.0D0,4.42082893729878D-15,7.0D0,-36.1D0,4.64395806341297D-15,         1P     13
56.7485478543386D0,-37.9220477577773D0,1.57772181044202D-30,           1P     14
89.0D0,0.0D0,36.1D0,7.0D0,-36.1D0,37.9220477577773D0,                  1P     15
56.7485478543386D0,-37.9220477577773D0,1.57772181044202D-30,           1P     16
89.0D0,1.57772181044202D-30,36.1D0,7.0D0,4.42082893729878D-15,         1P     17
37.9220477577773D0,56.7485478543386D0,4.64395806341297D-15,            1P     18
0.0D0,89.0D0,1.57772181044202D-30,36.1D0,7.0D0,36.1D0,                 1P     19
37.9220477577773D0,56.7485478543386D0,37.9220477577773D0,              1P     20
-1.57772181044202D-30,89.0D0,1.57772181044202D-30,                     1P     21
-4.42082893729878D-15,7.0D0,36.1D0,-4.64395806341297D-15,              1P     22
56.7485478543386D0,37.9220477577773D0,-1.57772181044202D-30,           1P     23
89.0D0,0.0D0,-36.1D0,7.0D0,36.1D0,-37.9220477577773D0,                 1P     24
56.7485478543386D0,37.9220477577773D0,-1.57772181044202D-30,           1P     25
89.0D0,-1.57772181044202D-30,-36.1D0,7.0D0,                            1P     26
-4.42082893729878D-15,-37.9220477577773D0,56.7485478543386D0,          1P     27
-4.64395806341297D-15,0.0D0,89.0D0,-1.57772181044202D-30,              1P     28
-36.1D0,7.0D0,-36.1D0,-37.9220477577773D0,56.7485478543386D0,          1P     29
-37.9220477577773D0,1.57772181044202D-30,89.0D0,                       1P     30
-1.57772181044202D-30,4.42082893729878D-15,7.0D0,-36.1D0,              1P     31
4.64395806341297D-15,56.7485478543386D0,-37.9220477577773D0,           1P     32
1.57772181044202D-30,89.0D0,0.0D0,-3.66087814092489D-2,                1P     33
.866031177543017D0,0.0D0,6.28318530717959D0;                           1P     34
502,12,0.0D0,89.0D0,0.0D0,0.0D0,7.0D0,36.1D0,                          3P     35
-4.42082893729878D-15,7.0D0,-36.1D0,-36.1D0,7.0D0,0.0D0,-37.5D0,       3P     36
7.0D0,0.0D0,-37.5D0,0.0D0,0.0D0,37.5D0,7.0D0,                          3P     37
-4.59227382683391D-15,37.5D0,-4.44089209850063D-16,                    3P     38
-4.59227382683391D-15,-6.0D0,-31.0D0,0.0D0,-6.0D0,0.0D0,0.0D0,         3P     39
6.0D0,-31.0D0,7.34763812293426D-16,6.0D0,0.0D0,                        3P     40
7.34763812293426D-16;                                                  3P     41
100,0.0D0,0.0D0,0.0D0,66.5411815676926D0,-78.2407518852891D0,          5P     42
102.641181567693D0,3.75924811471088D0;                                 5P     43
124,0.0D0,0.0D0,1.0D0,0.0D0,0.0D0,-1.0D0,0.0D0,                        7P     44
10.7592481147109D0,1.0D0,0.0D0,0.0D0,-66.5411815676926D0;              7P     45
504,17,5,3,1,3,2,11,3,1,3,3,15,3,3,3,4,19,3,4,3,2,33,3,5,3,6,35,       9P     46
3,7,3,5,37,3,7,3,8,39,3,8,3,6,55,3,9,3,10,57,3,9,3,11,61,3,11,3,       9P     47
12,63,3,10,3,12,77,3,12,3,10,79,3,11,3,9,105,3,6,3,8,107,3,5,3,        9P     48
7,123,3,2,3,3;                                                         9P     49
100,0.0D0,0.0D0,0.0D0,66.5411815676926D0,-78.2407518852891D0,         11P     50
102.641181567693D0,3.75924811471088D0;                                11P     51
124,0.0D0,0.0D0,-1.0D0,8.14867537386449D-15,0.0D0,-1.0D0,0.0D0,       13P     52
10.7592481147109D0,-1.0D0,0.0D0,0.0D0,66.5411815676926D0;             13P     53
100,0.0D0,0.0D0,0.0D0,-6.63124340594817D-15,-36.1D0,36.1D0,           15P     54
-8.84165787459757D-15;                                                15P     55
124,-1.0D0,0.0D0,0.0D0,0.0D0,0.0D0,0.0D0,1.0D0,7.0D0,0.0D0,           17P     56
1.0D0,0.0D0,0.0D0;                                                    17P     57
100,0.0D0,0.0D0,0.0D0,36.1D0,0.0D0,2.21041446864939D-15,36.1D0;       19P     58
508,4,0,9,1,0,0,0,9,2,1,0,0,9,3,1,0,0,9,4,1,0;                        21P     59
510,1,1,1,21;                                                         23P     60
116,0.0D0,3.5D0,0.0D0,0;                                              25P     61
123,0.0D0,1.0D0,0.0D0;                                                27P     62
192,25,27,37.5D0,31;                                                  29P     63
123,-1.0D0,0.0D0,0.0D0;                                               31P     64
110,-37.5D0,7.0D0,0.0D0,-37.5D0,0.0D0,0.0D0;                          33P     65
100,0.0D0,0.0D0,0.0D0,-37.5D0,4.59227382683391D-15,37.5D0,            35P     66
-9.18454765366783D-15;                                                35P     67
110,37.5D0,7.0D0,-4.59227382683391D-15,37.5D0,                        37P     68
-4.44089209850063D-16,-4.59227382683391D-15;                          37P     69
100,0.0D0,0.0D0,0.0D0,-37.5D0,4.59227382683391D-15,37.5D0,            39P     70
-9.18454765366783D-15;                                                39P     71
124,-1.0D0,0.0D0,0.0D0,0.0D0,0.0D0,0.0D0,1.0D0,0.0D0,0.0D0,           41P     72
1.0D0,0.0D0,0.0D0;                                                    41P     73
508,4,0,9,5,0,0,0,9,6,0,0,0,9,7,1,0,0,9,8,1,0;                        43P     74
510,29,1,1,43;                                                        45P     75
116,0.0D0,0.0D0,0.0D0,0;                                              47P     76
123,0.0D0,-1.0D0,0.0D0;                                               49P     77
192,47,49,6.0D0,53;                                                   51P     78
123,-1.0D0,0.0D0,0.0D0;                                               53P     79
110,-6.0D0,-31.0D0,0.0D0,-6.0D0,0.0D0,0.0D0;                          55P     80
100,0.0D0,0.0D0,0.0D0,6.0D0,0.0D0,-6.0D0,7.34763812293426D-16;        57P     81
124,-1.0D0,0.0D0,0.0D0,0.0D0,0.0D0,0.0D0,1.0D0,-31.0D0,0.0D0,         59P     82
1.0D0,0.0D0,0.0D0;                                                    59P     83
110,6.0D0,-31.0D0,7.34763812293426D-16,6.0D0,0.0D0,                   61P     84
7.34763812293426D-16;                                                 61P     85
100,0.0D0,0.0D0,0.0D0,6.0D0,0.0D0,-6.0D0,7.34763812293426D-16;        63P     86
508,4,0,9,9,0,0,0,9,10,1,0,0,9,11,1,0,0,9,12,0,0;                     65P     87
510,51,1,1,65;                                                        67P     88
116,0.0D0,0.0D0,0.0D0,0;                                              69P     89
123,0.0D0,-1.0D0,0.0D0;                                               71P     90
192,69,71,6.0D0,75;                                                   73P     91
123,-1.0D0,0.0D0,0.0D0;                                               75P     92
100,0.0D0,0.0D0,0.0D0,-6.0D0,7.34763812293426D-16,6.0D0,              77P     93
-1.46952762458685D-15;                                                77P     94
100,0.0D0,0.0D0,0.0D0,-6.0D0,7.34763812293426D-16,6.0D0,              79P     95
-1.46952762458685D-15;                                                79P     96
508,4,0,9,9,1,0,0,9,13,0,0,0,9,11,0,0,0,9,14,1,0;                     81P     97
510,73,1,1,81;                                                        83P     98
116,0.0D0,-31.0D0,0.0D0,0;                                            85P     99
123,0.0D0,-1.0D0,0.0D0;                                               87P    100
190,85,87,91;                                                         89P    101
123,0.0D0,0.0D0,-1.0D0;                                               91P    102
508,2,0,9,14,0,0,0,9,10,0,0;                                          93P    103
510,89,1,1,93;                                                        95P    104
116,0.0D0,3.5D0,0.0D0,0;                                              97P    105
123,0.0D0,1.0D0,0.0D0;                                                99P    106
192,97,99,37.5D0,103;                                                101P    107
123,-1.0D0,0.0D0,0.0D0;                                              103P    108
100,0.0D0,0.0D0,0.0D0,37.5D0,0.0D0,-37.5D0,4.59227382683391D-15;     105P    109
100,0.0D0,0.0D0,0.0D0,37.5D0,0.0D0,-37.5D0,4.59227382683391D-15;     107P    110
508,4,0,9,5,1,0,0,9,15,1,0,0,9,7,0,0,0,9,16,0,0;                     109P    111
510,101,1,1,109;                                                     111P    112
116,-36.8D0,7.0D0,0.0D0,0;                                           113P    113
123,0.0D0,1.0D0,0.0D0;                                               115P    114
190,113,115,119;                                                     117P    115
123,0.0D0,0.0D0,1.0D0;                                               119P    116
508,2,0,9,16,1,0,0,9,6,1,0;                                          121P    117
100,0.0D0,0.0D0,0.0D0,2.21041446864939D-15,36.1D0,                   123P    118
-6.63124340594817D-15,-36.1D0;                                       123P    119
508,3,0,9,4,0,0,0,9,3,0,0,0,9,17,0,0;                                125P    120
510,117,2,1,121,125;                                                 127P    121
128,2,8,2,2,0,1,0,0,0,-3.66087814092489D-2,-3.66087814092489D-2,     129P    122
-3.66087814092489D-2,.866031177543017D0,.866031177543017D0,          129P    123
.866031177543017D0,0.0D0,0.0D0,0.0D0,1.5707963267949D0,              129P    124
1.5707963267949D0,3.14159265358979D0,3.14159265358979D0,             129P    125
4.71238898038469D0,4.71238898038469D0,6.28318530717959D0,            129P    126
6.28318530717959D0,6.28318530717959D0,1.0D0,.899872172496544D0,      129P    127
1.0D0,.707106781186548D0,.636305715373377D0,.707106781186548D0,      129P    128
1.0D0,.899872172496544D0,1.0D0,.707106781186548D0,                   129P    129
.636305715373377D0,.707106781186548D0,1.0D0,.899872172496544D0,      129P    130
1.0D0,.707106781186548D0,.636305715373377D0,.707106781186548D0,      129P    131
1.0D0,.899872172496544D0,1.0D0,.707106781186548D0,                   129P    132
.636305715373377D0,.707106781186548D0,1.0D0,.899872172496544D0,      129P    133
1.0D0,4.42082893729878D-15,7.0D0,-36.1D0,4.64395806341297D-15,       129P    134
56.7485478543386D0,-37.9220477577773D0,1.57772181044202D-30,         129P    135
89.0D0,0.0D0,36.1D0,7.0D0,-36.1D0,37.9220477577773D0,                129P    136
56.7485478543386D0,-37.9220477577773D0,1.57772181044202D-30,         129P    137
89.0D0,1.57772181044202D-30,36.1D0,7.0D0,4.42082893729878D-15,       129P    138
37.9220477577773D0,56.7485478543386D0,4.64395806341297D-15,          129P    139
0.0D0,89.0D0,1.57772181044202D-30,36.1D0,7.0D0,36.1D0,               129P    140
37.9220477577773D0,56.7485478543386D0,37.9220477577773D0,            129P    141
-1.57772181044202D-30,89.0D0,1.57772181044202D-30,                   129P    142
-4.42082893729878D-15,7.0D0,36.1D0,-4.64395806341297D-15,            129P    143
56.7485478543386D0,37.9220477577773D0,-1.57772181044202D-30,         129P    144
89.0D0,0.0D0,-36.1D0,7.0D0,36.1D0,-37.9220477577773D0,               129P    145
56.7485478543386D0,37.9220477577773D0,-1.57772181044202D-30,         129P    146
89.0D0,-1.57772181044202D-30,-36.1D0,7.0D0,                          129P    147
-4.42082893729878D-15,-37.9220477577773D0,56.7485478543386D0,        129P    148
-4.64395806341297D-15,0.0D0,89.0D0,-1.57772181044202D-30,            129P    149
-36.1D0,7.0D0,-36.1D0,-37.9220477577773D0,56.7485478543386D0,        129P    150
-37.9220477577773D0,1.57772181044202D-30,89.0D0,                     129P    151
-1.57772181044202D-30,4.42082893729878D-15,7.0D0,-36.1D0,            129P    152
4.64395806341297D-15,56.7485478543386D0,-37.9220477577773D0,         129P    153
1.57772181044202D-30,89.0D0,0.0D0,-3.66087814092489D-2,              129P    154
.866031177543017D0,0.0D0,6.28318530717959D0;                         129P    155
508,3,0,9,1,1,0,0,9,17,1,0,0,9,2,0,0;                                131P    156
510,129,1,1,131;                                                     133P    157
116,-18.75D0,0.0D0,0.0D0,0;                                          135P    158
123,0.0D0,-1.0D0,0.0D0;                                              137P    159
190,135,137,141;                                                     139P    160
123,0.0D0,0.0D0,-1.0D0;                                              141P    161
508,2,0,9,15,0,0,0,9,8,0,0;                                          143P    162
508,2,0,9,13,1,0,0,9,12,1,0;                                         145P    163
510,139,2,1,143,145;                                                 147P    164
514,9,23,1,45,1,67,1,83,1,95,1,111,1,127,1,133,1,147,1;              149P    165
186,149,1,0;                                                         151P    166
314,32.1568638086319D0,32.1568638086319D0,32.1568638086319D0,7HS     153P    167
chwarz;                                                              153P    168
S      1G      5D    154P    168                                        T      1
