ISO-10303-21;
HEADER;
/****************************************************************
 * Generated by software with PDE/Lib inside                    *
 * PDElib Version v51a, created Tue 12/06/2005                  *
 * International Technegroup Inc. (www.iti-oh.com)              *
 ****************************************************************/
FILE_DESCRIPTION((''),'2;1');
FILE_NAME('U:\\Paletti Norm\\Paletti Artikel f. Palkat\\STEP\\SP070_extern.ipt.step','2007-09-10T15:08:26',(''),(''),'Autodesk Inventor 11','Autodesk Inventor 11','');
FILE_SCHEMA(('AUTOMOTIVE_DESIGN { 1 0 10303 214 1 1 1 1 }'));
ENDSEC;
DATA;
#5=APPLICATION_CONTEXT('automotive design');
#6=APPLICATION_PROTOCOL_DEFINITION('International Standard','automotive_design',2001,#5);
#7=PRODUCT_CONTEXT('',#5,'mechanical');
#8=PRODUCT('SP070_extern','SP070_extern',$,(#7));
#9=PRODUCT_RELATED_PRODUCT_CATEGORY('part',$,(#8));
#10=PRODUCT_DEFINITION_FORMATION('',$,#8);
#11=PRODUCT_DEFINITION_CONTEXT('part definition',#5,'design');
#12=PRODUCT_DEFINITION('',$,#10,#11);
#18=(NAMED_UNIT(*)PLANE_ANGLE_UNIT()SI_UNIT($,.RADIAN.));
#19=DIMENSIONAL_EXPONENTS(0.0,0.0,0.0,0.0,0.0,0.0,0.0);
#20=PLANE_ANGLE_MEASURE_WITH_UNIT(PLANE_ANGLE_MEASURE(0.017453292500000),#18);
#24=(CONVERSION_BASED_UNIT('DEGREE',#20)NAMED_UNIT(#19)PLANE_ANGLE_UNIT());
#28=(NAMED_UNIT(*)SI_UNIT($,.STERADIAN.)SOLID_ANGLE_UNIT());
#32=(LENGTH_UNIT()NAMED_UNIT(*)SI_UNIT(.MILLI.,.METRE.));
#34=UNCERTAINTY_MEASURE_WITH_UNIT(LENGTH_MEASURE(0.010000000000000),#32,'DISTANCE_ACCURACY_VALUE','');
#36=(GEOMETRIC_REPRESENTATION_CONTEXT(3)GLOBAL_UNCERTAINTY_ASSIGNED_CONTEXT((#34))GLOBAL_UNIT_ASSIGNED_CONTEXT((#24,#28,#32))REPRESENTATION_CONTEXT('None','None'));
#37=AXIS2_PLACEMENT_3D('',#38,#39,#40);
#38=CARTESIAN_POINT('',(0.0,0.0,0.0));
#39=DIRECTION('',(0.0,0.0,1.0));
#40=DIRECTION('',(1.0,0.0,0.0));
#41=SHAPE_REPRESENTATION('',(#37),#36);
#42=PRODUCT_DEFINITION_SHAPE('','',#12);
#43=SHAPE_DEFINITION_REPRESENTATION(#42,#41);
#44=CARTESIAN_POINT('',(5.017881024121139,-24.516451671866744,-0.500000000000000));
#45=DIRECTION('',(0.0,0.0,1.0));
#46=DIRECTION('',(1.0,0.0,0.0));
#47=AXIS2_PLACEMENT_3D('',#44,#45,#46);
#48=PLANE('',#47);
#49=CARTESIAN_POINT('',(0.0,0.0,-0.500000000000000));
#50=VERTEX_POINT('',#49);
#51=CARTESIAN_POINT('',(0.0,-32.750000000000021,-0.500000000000000));
#52=VERTEX_POINT('',#51);
#53=CARTESIAN_POINT('',(0.0,0.0,-0.500000000000000));
#54=DIRECTION('',(0.0,-1.0,0.0));
#55=VECTOR('',#54,32.750000000000021);
#56=LINE('',#53,#55);
#57=EDGE_CURVE('',#50,#52,#56,.T.);
#58=ORIENTED_EDGE('',*,*,#57,.F.);
#59=CARTESIAN_POINT('',(1.999999999999999,0.0,-0.500000000000000));
#60=VERTEX_POINT('',#59);
#61=CARTESIAN_POINT('',(1.999999999999999,0.0,-0.500000000000000));
#62=DIRECTION('',(-1.0,0.0,0.0));
#63=VECTOR('',#62,1.999999999999999);
#64=LINE('',#61,#63);
#65=EDGE_CURVE('',#60,#50,#64,.T.);
#66=ORIENTED_EDGE('',*,*,#65,.F.);
#67=CARTESIAN_POINT('',(2.000000000000001,-24.899999999999999,-0.500000000000000));
#68=VERTEX_POINT('',#67);
#69=CARTESIAN_POINT('',(2.000000000000001,-24.899999999999999,-0.500000000000000));
#70=DIRECTION('',(0.0,1.0,0.0));
#71=VECTOR('',#70,24.899999999999999);
#72=LINE('',#69,#71);
#73=EDGE_CURVE('',#68,#60,#72,.T.);
#74=ORIENTED_EDGE('',*,*,#73,.F.);
#75=CARTESIAN_POINT('',(7.850000000000001,-24.899999999999999,-0.500000000000000));
#76=VERTEX_POINT('',#75);
#77=CARTESIAN_POINT('',(7.850000000000001,-24.899999999999999,-0.500000000000000));
#78=DIRECTION('',(-1.0,0.0,0.0));
#79=VECTOR('',#78,5.850000000000001);
#80=LINE('',#77,#79);
#81=EDGE_CURVE('',#76,#68,#80,.T.);
#82=ORIENTED_EDGE('',*,*,#81,.F.);
#83=CARTESIAN_POINT('',(10.859983388658483,-40.000000000000007,-0.500000000000000));
#84=VERTEX_POINT('',#83);
#85=CARTESIAN_POINT('',(7.850000000000003,-32.750000000000000,-0.500000000000000));
#86=DIRECTION('',(0.0,0.0,1.0));
#87=DIRECTION('',(-0.383437374351398,0.923566878980892,0.0));
#88=AXIS2_PLACEMENT_3D('',#85,#86,#87);
#89=CIRCLE('',#88,7.850000000000001);
#90=EDGE_CURVE('',#84,#76,#89,.T.);
#91=ORIENTED_EDGE('',*,*,#90,.F.);
#92=CARTESIAN_POINT('',(9.850000000000005,-40.0,-0.500000000000000));
#93=VERTEX_POINT('',#92);
#94=CARTESIAN_POINT('',(9.850000000000005,-40.0,-0.500000000000000));
#95=DIRECTION('',(1.0,0.0,0.0));
#96=VECTOR('',#95,1.009983388658478);
#97=LINE('',#94,#96);
#98=EDGE_CURVE('',#93,#84,#97,.T.);
#99=ORIENTED_EDGE('',*,*,#98,.F.);
#100=CARTESIAN_POINT('',(9.850000000000005,-38.140964663211960,-0.500000000000000));
#101=VERTEX_POINT('',#100);
#102=CARTESIAN_POINT('',(9.850000000000005,-38.140964663211960,-0.500000000000000));
#103=DIRECTION('',(0.0,-1.0,0.0));
#104=VECTOR('',#103,1.859035336788040);
#105=LINE('',#102,#104);
#106=EDGE_CURVE('',#101,#93,#105,.T.);
#107=ORIENTED_EDGE('',*,*,#106,.F.);
#108=CARTESIAN_POINT('',(5.850000000000005,-38.140964663211960,-0.500000000000000));
#109=VERTEX_POINT('',#108);
#110=CARTESIAN_POINT('',(7.850000000000003,-32.750000000000000,-0.500000000000000));
#111=DIRECTION('',(0.0,0.0,-1.000000000000000));
#112=DIRECTION('',(0.347826086956522,-0.937559071862949,0.0));
#113=AXIS2_PLACEMENT_3D('',#110,#111,#112);
#114=CIRCLE('',#113,5.749999999999999);
#115=EDGE_CURVE('',#109,#101,#114,.T.);
#116=ORIENTED_EDGE('',*,*,#115,.F.);
#117=CARTESIAN_POINT('',(5.850000000000004,-40.000000000000014,-0.500000000000000));
#118=VERTEX_POINT('',#117);
#119=CARTESIAN_POINT('',(5.850000000000004,-40.000000000000014,-0.500000000000000));
#120=DIRECTION('',(0.0,1.0,0.0));
#121=VECTOR('',#120,1.859035336788054);
#122=LINE('',#119,#121);
#123=EDGE_CURVE('',#118,#109,#122,.T.);
#124=ORIENTED_EDGE('',*,*,#123,.F.);
#125=CARTESIAN_POINT('',(4.840016611341548,-40.000000000000014,-0.500000000000000));
#126=VERTEX_POINT('',#125);
#127=CARTESIAN_POINT('',(4.840016611341548,-40.000000000000014,-0.500000000000000));
#128=DIRECTION('',(1.0,0.0,0.0));
#129=VECTOR('',#128,1.009983388658457);
#130=LINE('',#127,#129);
#131=EDGE_CURVE('',#126,#118,#130,.T.);
#132=ORIENTED_EDGE('',*,*,#131,.F.);
#133=CARTESIAN_POINT('',(7.850000000000003,-32.750000000000000,-0.500000000000000));
#134=DIRECTION('',(0.0,0.0,1.0));
#135=DIRECTION('',(1.0,0.0,0.0));
#136=AXIS2_PLACEMENT_3D('',#133,#134,#135);
#137=CIRCLE('',#136,7.850000000000001);
#138=EDGE_CURVE('',#52,#126,#137,.T.);
#139=ORIENTED_EDGE('',*,*,#138,.F.);
#140=EDGE_LOOP('',(#58,#66,#74,#82,#91,#99,#107,#116,#124,#132,#139));
#141=FACE_OUTER_BOUND('',#140,.T.);
#142=ADVANCED_FACE('',(#141),#48,.F.);
#143=CARTESIAN_POINT('',(1.999999999999999,0.0,0.0));
#144=DIRECTION('',(1.0,0.0,0.0));
#145=DIRECTION('',(0.0,0.0,-1.0));
#146=AXIS2_PLACEMENT_3D('',#143,#144,#145);
#147=PLANE('',#146);
#148=CARTESIAN_POINT('',(1.999999999999999,0.0,0.500000000000000));
#149=VERTEX_POINT('',#148);
#150=CARTESIAN_POINT('',(2.000000000000001,-24.899999999999999,0.500000000000000));
#151=VERTEX_POINT('',#150);
#152=CARTESIAN_POINT('',(1.999999999999999,0.0,0.500000000000000));
#153=DIRECTION('',(0.0,-1.0,0.0));
#154=VECTOR('',#153,24.899999999999999);
#155=LINE('',#152,#154);
#156=EDGE_CURVE('',#149,#151,#155,.T.);
#157=ORIENTED_EDGE('',*,*,#156,.T.);
#158=CARTESIAN_POINT('',(2.000000000000001,-24.899999999999999,0.500000000000000));
#159=DIRECTION('',(0.0,0.0,-1.0));
#160=VECTOR('',#159,1.0);
#161=LINE('',#158,#160);
#162=EDGE_CURVE('',#151,#68,#161,.T.);
#163=ORIENTED_EDGE('',*,*,#162,.T.);
#164=ORIENTED_EDGE('',*,*,#73,.T.);
#165=CARTESIAN_POINT('',(1.999999999999999,0.0,0.500000000000000));
#166=DIRECTION('',(0.0,0.0,-1.0));
#167=VECTOR('',#166,1.0);
#168=LINE('',#165,#167);
#169=EDGE_CURVE('',#149,#60,#168,.T.);
#170=ORIENTED_EDGE('',*,*,#169,.F.);
#171=EDGE_LOOP('',(#157,#163,#164,#170));
#172=FACE_OUTER_BOUND('',#171,.T.);
#173=ADVANCED_FACE('',(#172),#147,.T.);
#174=CARTESIAN_POINT('',(2.000000000000001,-24.899999999999999,0.0));
#175=DIRECTION('',(0.0,1.0,0.0));
#176=DIRECTION('',(0.0,0.0,1.0));
#177=AXIS2_PLACEMENT_3D('',#174,#175,#176);
#178=PLANE('',#177);
#179=CARTESIAN_POINT('',(7.850000000000001,-24.899999999999999,0.500000000000000));
#180=VERTEX_POINT('',#179);
#181=CARTESIAN_POINT('',(2.000000000000001,-24.899999999999999,0.500000000000000));
#182=DIRECTION('',(1.0,0.0,0.0));
#183=VECTOR('',#182,5.850000000000001);
#184=LINE('',#181,#183);
#185=EDGE_CURVE('',#151,#180,#184,.T.);
#186=ORIENTED_EDGE('',*,*,#185,.T.);
#187=CARTESIAN_POINT('',(7.850000000000001,-24.899999999999999,0.500000000000000));
#188=DIRECTION('',(0.0,0.0,-1.0));
#189=VECTOR('',#188,1.0);
#190=LINE('',#187,#189);
#191=EDGE_CURVE('',#180,#76,#190,.T.);
#192=ORIENTED_EDGE('',*,*,#191,.T.);
#193=ORIENTED_EDGE('',*,*,#81,.T.);
#194=ORIENTED_EDGE('',*,*,#162,.F.);
#195=EDGE_LOOP('',(#186,#192,#193,#194));
#196=FACE_OUTER_BOUND('',#195,.T.);
#197=ADVANCED_FACE('',(#196),#178,.T.);
#198=CARTESIAN_POINT('',(7.850000000000003,-32.750000000000000,0.0));
#199=DIRECTION('',(0.0,0.0,1.0));
#200=DIRECTION('',(-0.383437374351398,0.923566878980892,0.0));
#201=AXIS2_PLACEMENT_3D('',#198,#199,#200);
#202=CYLINDRICAL_SURFACE('',#201,7.850000000000001);
#203=CARTESIAN_POINT('',(10.859983388658483,-40.000000000000007,0.500000000000000));
#204=VERTEX_POINT('',#203);
#205=CARTESIAN_POINT('',(7.850000000000003,-32.750000000000000,0.500000000000000));
#206=DIRECTION('',(0.0,0.0,-1.0));
#207=DIRECTION('',(-0.383437374351398,0.923566878980892,0.0));
#208=AXIS2_PLACEMENT_3D('',#205,#206,#207);
#209=CIRCLE('',#208,7.850000000000001);
#210=EDGE_CURVE('',#180,#204,#209,.T.);
#211=ORIENTED_EDGE('',*,*,#210,.T.);
#212=CARTESIAN_POINT('',(10.859983388658483,-40.000000000000007,0.500000000000000));
#213=DIRECTION('',(0.0,0.0,-1.0));
#214=VECTOR('',#213,1.0);
#215=LINE('',#212,#214);
#216=EDGE_CURVE('',#204,#84,#215,.T.);
#217=ORIENTED_EDGE('',*,*,#216,.T.);
#218=ORIENTED_EDGE('',*,*,#90,.T.);
#219=ORIENTED_EDGE('',*,*,#191,.F.);
#220=EDGE_LOOP('',(#211,#217,#218,#219));
#221=FACE_OUTER_BOUND('',#220,.T.);
#222=ADVANCED_FACE('',(#221),#202,.T.);
#223=CARTESIAN_POINT('',(10.859983388658483,-40.000000000000007,0.0));
#224=DIRECTION('',(0.0,-1.0,0.0));
#225=DIRECTION('',(0.0,0.0,-1.0));
#226=AXIS2_PLACEMENT_3D('',#223,#224,#225);
#227=PLANE('',#226);
#228=CARTESIAN_POINT('',(9.850000000000005,-40.0,0.500000000000000));
#229=VERTEX_POINT('',#228);
#230=CARTESIAN_POINT('',(10.859983388658483,-40.000000000000007,0.500000000000000));
#231=DIRECTION('',(-1.0,0.0,0.0));
#232=VECTOR('',#231,1.009983388658478);
#233=LINE('',#230,#232);
#234=EDGE_CURVE('',#204,#229,#233,.T.);
#235=ORIENTED_EDGE('',*,*,#234,.T.);
#236=CARTESIAN_POINT('',(9.850000000000005,-40.0,0.500000000000000));
#237=DIRECTION('',(0.0,0.0,-1.0));
#238=VECTOR('',#237,1.0);
#239=LINE('',#236,#238);
#240=EDGE_CURVE('',#229,#93,#239,.T.);
#241=ORIENTED_EDGE('',*,*,#240,.T.);
#242=ORIENTED_EDGE('',*,*,#98,.T.);
#243=ORIENTED_EDGE('',*,*,#216,.F.);
#244=EDGE_LOOP('',(#235,#241,#242,#243));
#245=FACE_OUTER_BOUND('',#244,.T.);
#246=ADVANCED_FACE('',(#245),#227,.T.);
#247=CARTESIAN_POINT('',(9.850000000000005,-40.0,0.0));
#248=DIRECTION('',(-1.0,0.0,0.0));
#249=DIRECTION('',(0.0,0.0,1.0));
#250=AXIS2_PLACEMENT_3D('',#247,#248,#249);
#251=PLANE('',#250);
#252=CARTESIAN_POINT('',(9.850000000000005,-38.140964663211960,0.500000000000000));
#253=VERTEX_POINT('',#252);
#254=CARTESIAN_POINT('',(9.850000000000005,-40.0,0.500000000000000));
#255=DIRECTION('',(0.0,1.0,0.0));
#256=VECTOR('',#255,1.859035336788040);
#257=LINE('',#254,#256);
#258=EDGE_CURVE('',#229,#253,#257,.T.);
#259=ORIENTED_EDGE('',*,*,#258,.T.);
#260=CARTESIAN_POINT('',(9.850000000000005,-38.140964663211960,0.500000000000000));
#261=DIRECTION('',(0.0,0.0,-1.0));
#262=VECTOR('',#261,1.0);
#263=LINE('',#260,#262);
#264=EDGE_CURVE('',#253,#101,#263,.T.);
#265=ORIENTED_EDGE('',*,*,#264,.T.);
#266=ORIENTED_EDGE('',*,*,#106,.T.);
#267=ORIENTED_EDGE('',*,*,#240,.F.);
#268=EDGE_LOOP('',(#259,#265,#266,#267));
#269=FACE_OUTER_BOUND('',#268,.T.);
#270=ADVANCED_FACE('',(#269),#251,.T.);
#271=CARTESIAN_POINT('',(7.850000000000003,-32.750000000000000,0.0));
#272=DIRECTION('',(0.0,0.0,1.0));
#273=DIRECTION('',(0.347826086956522,-0.937559071862949,0.0));
#274=AXIS2_PLACEMENT_3D('',#271,#272,#273);
#275=CYLINDRICAL_SURFACE('',#274,5.750000000000000);
#276=CARTESIAN_POINT('',(5.850000000000005,-38.140964663211960,0.500000000000000));
#277=VERTEX_POINT('',#276);
#278=CARTESIAN_POINT('',(7.850000000000003,-32.750000000000000,0.500000000000000));
#279=DIRECTION('',(0.0,0.0,1.000000000000000));
#280=DIRECTION('',(0.347826086956522,-0.937559071862949,0.0));
#281=AXIS2_PLACEMENT_3D('',#278,#279,#280);
#282=CIRCLE('',#281,5.749999999999999);
#283=EDGE_CURVE('',#253,#277,#282,.T.);
#284=ORIENTED_EDGE('',*,*,#283,.T.);
#285=CARTESIAN_POINT('',(5.850000000000005,-38.140964663211960,0.500000000000000));
#286=DIRECTION('',(0.0,0.0,-1.0));
#287=VECTOR('',#286,1.0);
#288=LINE('',#285,#287);
#289=EDGE_CURVE('',#277,#109,#288,.T.);
#290=ORIENTED_EDGE('',*,*,#289,.T.);
#291=ORIENTED_EDGE('',*,*,#115,.T.);
#292=ORIENTED_EDGE('',*,*,#264,.F.);
#293=EDGE_LOOP('',(#284,#290,#291,#292));
#294=FACE_OUTER_BOUND('',#293,.T.);
#295=ADVANCED_FACE('',(#294),#275,.F.);
#296=CARTESIAN_POINT('',(5.850000000000005,-38.140964663211960,0.0));
#297=DIRECTION('',(1.0,0.0,0.0));
#298=DIRECTION('',(0.0,0.0,-1.0));
#299=AXIS2_PLACEMENT_3D('',#296,#297,#298);
#300=PLANE('',#299);
#301=CARTESIAN_POINT('',(5.850000000000004,-40.000000000000014,0.500000000000000));
#302=VERTEX_POINT('',#301);
#303=CARTESIAN_POINT('',(5.850000000000005,-38.140964663211960,0.500000000000000));
#304=DIRECTION('',(0.0,-1.0,0.0));
#305=VECTOR('',#304,1.859035336788054);
#306=LINE('',#303,#305);
#307=EDGE_CURVE('',#277,#302,#306,.T.);
#308=ORIENTED_EDGE('',*,*,#307,.T.);
#309=CARTESIAN_POINT('',(5.850000000000004,-40.000000000000014,0.500000000000000));
#310=DIRECTION('',(0.0,0.0,-1.0));
#311=VECTOR('',#310,1.0);
#312=LINE('',#309,#311);
#313=EDGE_CURVE('',#302,#118,#312,.T.);
#314=ORIENTED_EDGE('',*,*,#313,.T.);
#315=ORIENTED_EDGE('',*,*,#123,.T.);
#316=ORIENTED_EDGE('',*,*,#289,.F.);
#317=EDGE_LOOP('',(#308,#314,#315,#316));
#318=FACE_OUTER_BOUND('',#317,.T.);
#319=ADVANCED_FACE('',(#318),#300,.T.);
#320=CARTESIAN_POINT('',(5.850000000000004,-40.000000000000014,0.0));
#321=DIRECTION('',(0.0,-1.0,0.0));
#322=DIRECTION('',(0.0,0.0,-1.0));
#323=AXIS2_PLACEMENT_3D('',#320,#321,#322);
#324=PLANE('',#323);
#325=CARTESIAN_POINT('',(4.840016611341548,-40.000000000000014,0.500000000000000));
#326=VERTEX_POINT('',#325);
#327=CARTESIAN_POINT('',(5.850000000000004,-40.000000000000014,0.500000000000000));
#328=DIRECTION('',(-1.0,0.0,0.0));
#329=VECTOR('',#328,1.009983388658457);
#330=LINE('',#327,#329);
#331=EDGE_CURVE('',#302,#326,#330,.T.);
#332=ORIENTED_EDGE('',*,*,#331,.T.);
#333=CARTESIAN_POINT('',(4.840016611341548,-40.000000000000014,0.500000000000000));
#334=DIRECTION('',(0.0,0.0,-1.0));
#335=VECTOR('',#334,1.0);
#336=LINE('',#333,#335);
#337=EDGE_CURVE('',#326,#126,#336,.T.);
#338=ORIENTED_EDGE('',*,*,#337,.T.);
#339=ORIENTED_EDGE('',*,*,#131,.T.);
#340=ORIENTED_EDGE('',*,*,#313,.F.);
#341=EDGE_LOOP('',(#332,#338,#339,#340));
#342=FACE_OUTER_BOUND('',#341,.T.);
#343=ADVANCED_FACE('',(#342),#324,.T.);
#344=CARTESIAN_POINT('',(7.850000000000003,-32.750000000000000,0.0));
#345=DIRECTION('',(0.0,0.0,1.0));
#346=DIRECTION('',(1.0,0.0,0.0));
#347=AXIS2_PLACEMENT_3D('',#344,#345,#346);
#348=CYLINDRICAL_SURFACE('',#347,7.850000000000001);
#349=CARTESIAN_POINT('',(0.0,-32.750000000000021,0.500000000000000));
#350=VERTEX_POINT('',#349);
#351=CARTESIAN_POINT('',(7.850000000000003,-32.750000000000000,0.500000000000000));
#352=DIRECTION('',(0.0,0.0,-1.0));
#353=DIRECTION('',(1.0,0.0,0.0));
#354=AXIS2_PLACEMENT_3D('',#351,#352,#353);
#355=CIRCLE('',#354,7.850000000000001);
#356=EDGE_CURVE('',#326,#350,#355,.T.);
#357=ORIENTED_EDGE('',*,*,#356,.T.);
#358=CARTESIAN_POINT('',(0.0,-32.750000000000021,0.500000000000000));
#359=DIRECTION('',(0.0,0.0,-1.0));
#360=VECTOR('',#359,1.0);
#361=LINE('',#358,#360);
#362=EDGE_CURVE('',#350,#52,#361,.T.);
#363=ORIENTED_EDGE('',*,*,#362,.T.);
#364=ORIENTED_EDGE('',*,*,#138,.T.);
#365=ORIENTED_EDGE('',*,*,#337,.F.);
#366=EDGE_LOOP('',(#357,#363,#364,#365));
#367=FACE_OUTER_BOUND('',#366,.T.);
#368=ADVANCED_FACE('',(#367),#348,.T.);
#369=CARTESIAN_POINT('',(0.0,-32.750000000000021,0.0));
#370=DIRECTION('',(-1.0,0.0,0.0));
#371=DIRECTION('',(0.0,0.0,1.0));
#372=AXIS2_PLACEMENT_3D('',#369,#370,#371);
#373=PLANE('',#372);
#374=CARTESIAN_POINT('',(0.0,0.0,0.500000000000000));
#375=VERTEX_POINT('',#374);
#376=CARTESIAN_POINT('',(0.0,-32.750000000000021,0.500000000000000));
#377=DIRECTION('',(0.0,1.0,0.0));
#378=VECTOR('',#377,32.750000000000021);
#379=LINE('',#376,#378);
#380=EDGE_CURVE('',#350,#375,#379,.T.);
#381=ORIENTED_EDGE('',*,*,#380,.T.);
#382=CARTESIAN_POINT('',(0.0,0.0,-0.500000000000000));
#383=DIRECTION('',(0.0,0.0,1.0));
#384=VECTOR('',#383,1.0);
#385=LINE('',#382,#384);
#386=EDGE_CURVE('',#50,#375,#385,.T.);
#387=ORIENTED_EDGE('',*,*,#386,.F.);
#388=ORIENTED_EDGE('',*,*,#57,.T.);
#389=ORIENTED_EDGE('',*,*,#362,.F.);
#390=EDGE_LOOP('',(#381,#387,#388,#389));
#391=FACE_OUTER_BOUND('',#390,.T.);
#392=ADVANCED_FACE('',(#391),#373,.T.);
#393=CARTESIAN_POINT('',(0.0,0.0,0.0));
#394=DIRECTION('',(0.0,1.0,0.0));
#395=DIRECTION('',(0.0,0.0,1.0));
#396=AXIS2_PLACEMENT_3D('',#393,#394,#395);
#397=PLANE('',#396);
#398=CARTESIAN_POINT('',(0.0,0.0,0.500000000000000));
#399=DIRECTION('',(1.0,0.0,0.0));
#400=VECTOR('',#399,1.999999999999999);
#401=LINE('',#398,#400);
#402=EDGE_CURVE('',#375,#149,#401,.T.);
#403=ORIENTED_EDGE('',*,*,#402,.T.);
#404=ORIENTED_EDGE('',*,*,#169,.T.);
#405=ORIENTED_EDGE('',*,*,#65,.T.);
#406=ORIENTED_EDGE('',*,*,#386,.T.);
#407=EDGE_LOOP('',(#403,#404,#405,#406));
#408=FACE_OUTER_BOUND('',#407,.T.);
#409=ADVANCED_FACE('',(#408),#397,.T.);
#410=CARTESIAN_POINT('',(5.017881024121138,-24.516451671866740,0.500000000000000));
#411=DIRECTION('',(0.0,0.0,1.0));
#412=DIRECTION('',(1.0,0.0,0.0));
#413=AXIS2_PLACEMENT_3D('',#410,#411,#412);
#414=PLANE('',#413);
#415=ORIENTED_EDGE('',*,*,#156,.F.);
#416=ORIENTED_EDGE('',*,*,#402,.F.);
#417=ORIENTED_EDGE('',*,*,#380,.F.);
#418=ORIENTED_EDGE('',*,*,#356,.F.);
#419=ORIENTED_EDGE('',*,*,#331,.F.);
#420=ORIENTED_EDGE('',*,*,#307,.F.);
#421=ORIENTED_EDGE('',*,*,#283,.F.);
#422=ORIENTED_EDGE('',*,*,#258,.F.);
#423=ORIENTED_EDGE('',*,*,#234,.F.);
#424=ORIENTED_EDGE('',*,*,#210,.F.);
#425=ORIENTED_EDGE('',*,*,#185,.F.);
#426=EDGE_LOOP('',(#415,#416,#417,#418,#419,#420,#421,#422,#423,#424,#425));
#427=FACE_OUTER_BOUND('',#426,.T.);
#428=ADVANCED_FACE('',(#427),#414,.T.);
#429=CLOSED_SHELL('',(#142,#173,#197,#222,#246,#270,#295,#319,#343,#368,#392,#409,#428));
#430=MANIFOLD_SOLID_BREP('',#429);
#431=COLOUR_RGB('Metall-AL-6061 (gleichm.)',0.847058832645416,0.839215695858002,0.839215695858002);
#432=FILL_AREA_STYLE_COLOUR('Metall-AL-6061 (gleichm.)',#431);
#433=FILL_AREA_STYLE('Metall-AL-6061 (gleichm.)',(#432));
#434=SURFACE_STYLE_FILL_AREA(#433);
#435=SURFACE_SIDE_STYLE('Metall-AL-6061 (gleichm.)',(#434));
#436=SURFACE_STYLE_USAGE(.BOTH.,#435);
#437=PRESENTATION_STYLE_ASSIGNMENT((#436));
#438=STYLED_ITEM('',(#437),#430);
#439=MECHANICAL_DESIGN_GEOMETRIC_PRESENTATION_REPRESENTATION('',(#438),#36);
#440=ADVANCED_BREP_SHAPE_REPRESENTATION('ABSR',(#430),#36);
#441=SHAPE_REPRESENTATION_RELATIONSHIP('SRR','None',#440,#41);
ENDSEC;
END-ISO-10303-21;
